Oops, an error
Loading. Please wait.

American Girl Tab

version 1
version 1

Whole song

Interactive

1,516 views 24 this week
no commentswrite comment
1 2 3 4 5
please rate
add to favorites
launch autoscroll
font size
0
reset
how to read this tab
guitar tuner
Tab Pro tools
  • play this tab
  • loop segment
  • change instrument
  • show fretboard
  • metronome
Autoscroll
slow
fast
+/-
esc
set tempo
stop
Contributor
Difficulty
intermediate
AMERICAN GIRL

As recorded by Tom Petty & The Heartbreakers
(From the 1976 Album TOM PETTY & THE HEARTBREAKERS)

Words and Music by Tom Petty

Transcribed by Slowhand 



           D                    E                    G                    A
      x 5 7 7 7 5          x 7 9 9 9 7       x 10 12 12 12 10     x 12 14 14 14 12

          Em                   Bm
      0 2 2 0 0 0          x 2 4 4 3 2



Gtr I (E A D G B E) - 'Mike Campbell - Electric Guitar'
Gtr II (E A D G B E) - 'Mike Campbell - Electric Guitar'
Gtr III (E A D G B E) - 'Tom Petty - Electric Guitar'


 Intro
  Q=192
    D
 4/4
  Gtr I
     Q.     E  +Q     Q     +W               +W                 +W
|---10-----10-(10)---10--|-(10)---------|---(10)-------------|-(10)---------|
|------------------------|--------------|--------------------|--------------|
|----7------7--(7)----7--|--(7)---------|----(7)-------------|--(7)---------|
|------------------------|--------------|--------------------|--------------|
|------------------------|--------------|--------------------|--------------|
|------------------------|--------------|--------------------|--------------|
|
| Gtr II
| a  Q   E  E  +E  E  Q      H     H      a   Q.   E +Q   Q     +H     H
|----2---2--2--(2)-2--2--|---2-----2----|-----2----2-(2)--2--|--(2)----2----|
|----3---3--3--(3)-3--3--|---3-----3----|-----3----3-(3)--3--|--(3)----3----|
|-0h=2---2--2--(2)-2--2--|---2-----2----|-0h==2----2-(2)--2--|--(2)----2----|
|----0---0--0--(0)-0--0--|---0-----0----|-----0----0-(0)--0--|--(0)----0----|
|------------------------|--------------|--------------------|--------------|
|------------------------|--------------|--------------------|--------------|


     Q.     E  +Q     Q     +Q    Q   E  E  E  E
|---10-----10-(10)---10--|-(10)--10--10-10-10-10-|
|------------------------|-----------------------|
|----7------7--(7)----7--|--(7)---7---7--7--7--7-|
|------------------------|-----------------------|
|------------------------|-----------------------|
|------------------------|-----------------------|
|
| a  Q   E  E  +E  E  Q      H        H
|----2---2--2--(2)-2--2--|---2--------2----------|
|----3---3--3--(3)-3--3--|---3--------3----------|
|-0h=2---2--2--(2)-2--2--|---2--------2----------|
|----0---0--0--(0)-0--0--|---0--------0----------|
|------------------------|-----------------------|
|------------------------|-----------------------|


     E   E  E  E  E   E  E  E    E   E  Q   E  E  E  E
|---10--10-10-10-10--10-10-10-|-10--10-10--10-10-10-10--|
|-----------------------------|-------------------------|
|----7---7--7--7--7---7--7--7-|--7---7--7---7--7--7--7--|
|-----------------------------|-------------------------|
|-----------------------------|-------------------------|
|-----------------------------|-------------------------|
|
| a  Q.        E +Q      Q      +H          H
|----2---------2-(2)-----2----|-(2)---------2-----------|
|----3---------3-(3)-----3----|-(3)---------3-----------|
|-0h=2---------2-(2)-----2----|-(2)---------2-----------|
|----0---------0-(0)-----0----|-(0)---------0-----------|
|-----------------------------|-------------------------|
|-----------------------------|-------------------------|


    D
      Gtr III
    a  E  E  E  E +E   E  Q      a  E  E  Q  a  E  E  Q
||-----------------------------|---------------------------|
||o----------------------------|---------------------------|
||-----------------------------|---------------------------|
||-----------------------------|---------------------------|
||o-4h=5--5--5--5-(5)--5--5----|-4h=5--5--5--4h=5--5--5----|
||-----------------------------|---------------------------|
|
|     Gtr I
|      E  E  E  E  E   E  E  E      E  E  Q     E  E  E  E
||----10-10-10-10-10--10-10-10-|---10-10-10----10-10-10-10-|
||o----------------------------|---------------------------|
||-----7--7--7--7--7---7--7--7-|----7--7--7-----7--7--7--7-|
||-----------------------------|---------------------------|
||o----------------------------|---------------------------|
||-----------------------------|---------------------------|
|
|   Gtr II
|   a  Q     E  E +E   E  Q         H           H
||-----2-----2--2-(2)--2--2----|----2-----------2----------|
||o----3-----3--3-(3)--3--3----|----3-----------3----------|
||--0h=2-----2--2-(2)--2--2----|----2-----------2----------|
||-----0-----0--0-(0)--0--0----|----0-----------0----------|
||o----------------------------|---------------------------|
||-----------------------------|---------------------------|


  E
  a  E   E  E  E +E   E  Q      a  E   E  Q  a  E  E  Q
|-----------------------------|-----------------------------|
|-----------------------------|-----------------------------|
|-----------------------------|-----------------------------|
|-----------------------------|-----------------------------|
|-4h=5---5--5--5-(5)--5--5----|-4h=5---5--5--4h=5--5--5-----|
|-----------------------------|-----------------------------|
|
|    E   E  E  E  E   E  E  E      E   E  Q     E  E  E  E
|---10--10-10-10-10--10-10-10-|---10--10-10----10-10-10-10--|
|-----------------------------|-----------------------------|
|----7---7--7--7--7---7--7--7-|----7---7--7-----7--7--7--7--|
|-----------------------------|-----------------------------|
|-----------------------------|-----------------------------|
|-----------------------------|-----------------------------|
|
| a  Q.        E +Q      Q        +H            H
|----2---------2-(2)-----2----|---(2)-----------2-----------|
|----3---------3-(3)-----3----|---(3)-----------3-----------|
|-0h=2---------2-(2)-----2----|---(2)-----------2-----------|
|----0---------0-(0)-----0----|---(0)-----------0-----------|
|-----------------------------|-----------------------------|
|-----------------------------|-----------------------------|


  G
  a  E  E  E  E +E   E  Q      a  E  E  Q  a  E  E  Q
|----------------------------|---------------------------|
|----------------------------|---------------------------|
|----------------------------|---------------------------|
|----------------------------|---------------------------|
|-4h=5--5--5--5-(5)--5--5----|-4h=5--5--5--4h=5--5--5----|
|----------------------------|---------------------------|
|
|    E  E  E  E  E   E  E  E      E  E  Q     E  E  E  E
|---10-10-10-10-10--10-10-10-|---10-10-10----10-10-10-10-|
|----------------------------|---------------------------|
|----7--7--7--7--7---7--7--7-|----7--7--7-----7--7--7--7-|
|----------------------------|---------------------------|
|----------------------------|---------------------------|
|----------------------------|---------------------------|
|
| a  Q     E  E +E   E  Q         H           H
|----2-----2--2-(2)--2--2----|----2-----------2----------|
|----3-----3--3-(3)--3--3----|----3-----------3----------|
|-0h=2-----2--2-(2)--2--2----|----2-----------2----------|
|----0-----0--0-(0)--0--0----|----0-----------0----------|
|----------------------------|---------------------------|
|----------------------------|---------------------------|


  A
  a  E   E  E  E +E   E  Q      a  E   E  Q  a  E  E  Q     3x
|-----------------------------|-----------------------------||
|-----------------------------|----------------------------o||
|-----------------------------|-----------------------------||
|-----------------------------|-----------------------------||
|-4h=5---5--5--5-(5)--5--5----|-4h=5---5--5--4h=5--5--5----o||
|-----------------------------|-----------------------------||
|
|    E   E  E  E  E   E  E  E      E   E  Q     E  E  E  E  3x
|---10--10-10-10-10--10-10-10-|---10--10-10----10-10-10-10--||
|-----------------------------|----------------------------o||
|----7---7--7--7--7---7--7--7-|----7---7--7-----7--7--7--7--||
|-----------------------------|-----------------------------||
|-----------------------------|----------------------------o||
|-----------------------------|-----------------------------||
|
| a  Q.        E +Q      Q        +H            H           3x
|----2---------2-(2)-----2----|---(2)-----------2-----------||
|----3---------3-(3)-----3----|---(3)-----------3----------o||
|-0h=2---------2-(2)-----2----|---(2)-----------2-----------||
|----0---------0-(0)-----0----|---(0)-----------0-----------||
|-----------------------------|----------------------------o||
|-----------------------------|-----------------------------||


   1st & 2nd Verses
    D                             E
    Gtr III
    W                +W           W               +W
    |                 |           |                |
    /                 /           /                /

    Gtr I
    Q.   E +Q   Q    +W           Q.   E +H       +H.      Q
||-----------------|------------|---------------|-------------|
||o-------------3--|-(3)--------|---------------|-------------|
||--------------2--|-(2)--------|---------------|-------------|
||--0----0-(0)--0--|-(0)--------|------2-(2)----|-(2)---------|
||o----------------|------------|------2-(2)----|-(2)---------|
||-----------------|------------|-0-------------|----------2--|


  G                              A
  W                +W            W                +W
  |                 |            |                 |
  /                 /            /                 /

  Q.   E +Q   Q    +H     H      Q.   E +Q   Q    +W
|-------------3--|-(3)---------|-------------5--|-(5)----|
|------0-(0)-----|-------------|-------------5--|-(5)----|
|------0-(0)-----|--------0----|------2-(2)-----|--------|
|----------------|-------------|------2-(2)-----|--------|
|----------------|-------------|-0--------------|--------|
|-3--------------|-------------|----------------|--------|


  D                             E
  W                +W           W               +W
  |                 |           |                |
  /                 /           /                /

  Q.   E +Q   Q    +W           Q.   E +H       +H.      Q
|----------------|------------|---------------|--------------|
|-------------3--|-(3)--------|---------------|--------------|
|-------------2--|-(2)--------|---------------|--------------|
|-0----0-(0)--0--|-(0)--------|------2-(2)----|-(2)----------|
|----------------|------------|------2-(2)----|-(2)----------|
|----------------|------------|-0-------------|----------2---|


  G                              A
  W                +W            W                +W
  |                 |            |                 |
  /                 /            /                 /

  Q.   E +Q   Q    +H     H      Q.   E +Q   Q    +W
|-------------3--|-(3)---------|-------------5--|-(5)----|
|------0-(0)-----|-------------|-------------5--|-(5)----|
|------0-(0)-----|--------0----|------2-(2)-----|--------|
|----------------|-------------|------2-(2)-----|--------|
|----------------|-------------|-0--------------|--------|
|-3--------------|-------------|----------------|--------|


                                D
  Q.   E +H        +W           W                +W
  |    |  |         |           |                 |
  /    /  /         /           /                 /

  Q.   E +Q   Q    +W           Q.   E +Q   Q    +H     Q  Q
|----------------|------------|-------------2--|-(2)-----------|
|----------------|------------|------3-(3)--3--|-(3)-----------|
|-2----2-(2)--2--|-(2)--------|------2-(2)--2--|-(2)-----------|
|-2----2-(2)--2--|-(2)--------|-0--------------|---------------|
|-0----0-(0)--0--|-(0)--------|----------------|---------------|
|----------------|------------|----------------|--------0--2---|


  G                             Em
  W                +W           W               +W
  |                 |           |                |
  /                 /           /                /

  Q.   E +Q   Q    +W           Q.   E +H       +W
|-------------3--|-(3)--------|-0-------------|--------|
|------0-(0)-----|------------|------0-(0)----|-(0)----|
|------0-(0)-----|------------|---------------|--------|
|----------------|------------|---------------|--------|
|----------------|------------|---------------|--------|
|-3--------------|------------|---------------|--------|


  A
  W                +W           W                +W
  |                 |           |                 |
  /                 /           /                 /

  Q.   E +Q   Q    +W           Q.   E +Q   Q    +W
|-------------0--|-(0)--------|----------------|--------|
|------2-(2)-----|------------|----------------|--------|
|------2-(2)-----|------------|----------------|--------|
|------2-(2)-----|------------|-------------2--|-(2)----|
|-0--------------|------------|-0----0-(0)--0--|-(0)----|
|----------------|------------|----------------|--------|


  W                +W           W                +W
  |                 |           |                 |
  /                 /           /                 /

  Q.   E +Q   Q    +W           Q.   E +Q   Q    +H     Q  Q
|----------------|------------|----------------|---------------||
|----------------|------------|-------------2--|-(2)-----------||
|-------------2--|-(2)--------|-------------2--|-(2)-----------||
|-------------2--|-(2)--------|-------------2--|-(2)-----------||
|-0----0-(0)--0--|-(0)--------|-0----0-(0)--0--|-(0)-----------||
|----------------|------------|----------------|--------0--2---||


 Chorus
  G                                A
  W                +W              W                +W
  |                 |              |                 |
  /                 /              /                 /

  Q.   E +Q   Q    +H.      a Q    Q.   E +Q   Q    +H     Q  E E
|-------------3--|-(3)-----------|-------------5--|-(5)-----------|
|------0-(0)-----|---------------|-------------5--|-(5)-----------|
|------0-(0)-----|---------------|------2-(2)-----|---------------|
|----------------|---------------|------2-(2)-----|---------------|
|----------------|----------0h2--|-0--------------|--------0--0h2-|
|-3--------------|---------------|----------------|---------------|


  D                              Bm
  W                +W            W              +W
  |                 |            |               |
  /                 /            /               /

  Q.   E +Q   Q    +H.      Q    H       H      +Q   Q     +H
|-------------2--|-(2)------7--|---------7----|-(7)---------------|
|------3-(3)--3--|-(3)------7--|--------------|-------------------|
|------2-(2)--2--|-(2)---------|-9b11---------|------9b11r=(9)----|
|-0--------------|-------------|--------------|-------------------|
|----------------|-------------|--------------|-------------------|
|----------------|-------------|--------------|-------------------|


  G                              A
  W               +W             W                +W
  |                |             |                 |
  /                /             /                 /

  Q.   E +H       +H     Q  Q    Q.   E +Q   Q    +W
|------3-(3)----|-(3)----------|-------------5--|-(5)----||
|------3-(3)----|-(3)----------|-------------5--|-(5)----||
|------4-(4)----|-(4)----------|------2-(2)--2--|-(2)----||
|---------------|--------------|------2-(2)-----|--------||
|---------------|--------2--0--|-0--------------|--------||
|-3-------------|--------------|----------------|--------||


  Gtr III
  a  E  E  E  E +E   E  Q      a  E  E  Q  a  E  E  Q
|----------------------------|---------------------------|
|----------------------------|---------------------------|
|----------------------------|---------------------------|
|----------------------------|---------------------------|
|-4h=5--5--5--5-(5)--5--5----|-4h=5--5--5--4h=5--5--5----|
|----------------------------|---------------------------|
|
|   Gtr I
|    E  E  E  E  E   E  E  E      E  E  Q     E  E  E  E
|---10-10-10-10-10--10-10-10-|---10-10-10----10-10-10-10-|
|----------------------------|---------------------------|
|----7--7--7--7--7---7--7--7-|----7--7--7-----7--7--7--7-|
|----------------------------|---------------------------|
|----------------------------|---------------------------|
|----------------------------|---------------------------|
|
| Gtr III
| a  Q     E  E +E   E  Q         H           H
|----2-----2--2-(2)--2--2----|----2-----------2----------|
|----3-----3--3-(3)--3--3----|----3-----------3----------|
|-0h=2-----2--2-(2)--2--2----|----2-----------2----------|
|----0-----0--0-(0)--0--0----|----0-----------0----------|
|----------------------------|---------------------------|
|----------------------------|---------------------------|


                               1.
  a  E   E  E  E +E   E  Q      a  E   E  Q  a  E  E  Q
|-----------------------------|-----------------------------||
|-----------------------------|----------------------------o||
|-----------------------------|-----------------------------||
|-----------------------------|-----------------------------||
|-4h=5---5--5--5-(5)--5--5----|-4h=5---5--5--4h=5--5--5----o||
|-----------------------------|-----------------------------||
|
|    E   E  E  E  E   E  E  E      E   E  Q     E  E  E  E
|---10--10-10-10-10--10-10-10-|---10--10-10----10-10-10-10--||
|-----------------------------|----------------------------o||
|----7---7--7--7--7---7--7--7-|----7---7--7-----7--7--7--7--||
|-----------------------------|-----------------------------||
|-----------------------------|----------------------------o||
|-----------------------------|-----------------------------||
|
| a  Q.        E +Q      Q        +H            H
|----2---------2-(2)-----2----|---(2)-----------2-----------||
|----3---------3-(3)-----3----|---(3)-----------3----------o||
|-0h=2---------2-(2)-----2----|---(2)-----------2-----------||
|----0---------0-(0)-----0----|---(0)-----------0-----------||
|-----------------------------|----------------------------o||
|-----------------------------|-----------------------------||


                                Guitar Break
  2.
                                 Gtr I
  a  E   E  Q  a  E  E  Q        q  E e Q  q    H    Q  e e
|----------------------------||---------------|-------------|
|----------------------------||o--------------|-------------|
|----------------------------||---------------|-------------|
|----------------------------||---------------|-------------|
|-4h=5---5--5--4h=5--5--5----||o--------------|-------------|
|----------------------------||--3----3----3--|---------3-4-|
|
|    E   E  Q     E  E  E  E     W              W
|---10--10-10----10-10-10-10-||---------------|-------------|
|----------------------------||o--------------|-------------|
|----7---7--7-----7--7--7--7-||---------------|-------------|
|----------------------------||---------------|-------------|
|----------------------------||o--------------|-------------|
|----------------------------||---------------|-------------|
|
|   +H            H              W              W
|---(2)-----------2----------||---------------|-------------|
|---(3)-----------3----------||o--------------|-------------|
|---(2)-----------2----------||---------------|-------------|
|---(0)-----------0----------||---------------|-------------|
|----------------------------||o--------------|-------------|
|----------------------------||---------------|-------------|


  1.,2.,3.                       4.
  q  E e Q  q    Q  E E H     4x q  E e Q  q    W
|--------------|--------------||--------------|------||
|--------------|-------------o||--------------|------||
|--------------|----5-6-7-----||--------------|------||
|--------------|--------------||--------------|------||
|-----------5--|-------------o||--------------|------||
|-5----5-------|--------------||-5----5----5--|------||


   Interlude
    Gtr III
    a  E  E  E  E +E   E  Q      a  E  E  Q  a  E  E  Q
||-----------------------------|---------------------------|
||o----------------------------|---------------------------|
||-----------------------------|---------------------------|
||-----------------------------|---------------------------|
||o-4h=5--5--5--5-(5)--5--5----|-4h=5--5--5--4h=5--5--5----|
||-----------------------------|---------------------------|
|
|     Gtr I
|      E  E  E  E  E   E  E  E      E  E  Q     E  E  E  E
||----10-10-10-10-10--10-10-10-|---10-10-10----10-10-10-10-|
||o----------------------------|---------------------------|
||-----7--7--7--7--7---7--7--7-|----7--7--7-----7--7--7--7-|
||-----------------------------|---------------------------|
||o----------------------------|---------------------------|
||-----------------------------|---------------------------|
|
|   Gtr II
|   a  Q     E  E +E   E  Q         H           H
||-----2-----2--2-(2)--2--2----|----2-----------2----------|
||o----3-----3--3-(3)--3--3----|----3-----------3----------|
||--0h=2-----2--2-(2)--2--2----|----2-----------2----------|
||-----0-----0--0-(0)--0--0----|----0-----------0----------|
||o----------------------------|---------------------------|
||-----------------------------|---------------------------|


  a  E   E  E  E +E   E  Q      a  E   E  Q  a  E  E  Q
|-----------------------------|-----------------------------|
|-----------------------------|-----------------------------|
|-----------------------------|-----------------------------|
|-----------------------------|-----------------------------|
|-4h=5---5--5--5-(5)--5--5----|-4h=5---5--5--4h=5--5--5-----|
|-----------------------------|-----------------------------|
|
|    E   E  E  E  E   E  E  E      E   E  Q     E  E  E  E
|---10--10-10-10-10--10-10-10-|---10--10-10----10-10-10-10--|
|-----------------------------|-----------------------------|
|----7---7--7--7--7---7--7--7-|----7---7--7-----7--7--7--7--|
|-----------------------------|-----------------------------|
|-----------------------------|-----------------------------|
|-----------------------------|-----------------------------|
|
| a  Q.        E +Q      Q        +H            H
|----2---------2-(2)-----2----|---(2)-----------2-----------|
|----3---------3-(3)-----3----|---(3)-----------3-----------|
|-0h=2---------2-(2)-----2----|---(2)-----------2-----------|
|----0---------0-(0)-----0----|---(0)-----------0-----------|
|-----------------------------|-----------------------------|
|-----------------------------|-----------------------------|


  a  E  E  E  E +E   E  Q      a  E  E  Q  a  E  E  Q
|----------------------------|---------------------------|
|----------------------------|---------------------------|
|----------------------------|---------------------------|
|----------------------------|---------------------------|
|-4h=5--5--5--5-(5)--5--5----|-4h=5--5--5--4h=5--5--5----|
|----------------------------|---------------------------|
|
|    E  E  E  E  E   E  E  E      E  E  Q     E  E  E  E
|---10-10-10-10-10--10-10-10-|---10-10-10----10-10-10-10-|
|----------------------------|---------------------------|
|----7--7--7--7--7---7--7--7-|----7--7--7-----7--7--7--7-|
|----------------------------|---------------------------|
|----------------------------|---------------------------|
|----------------------------|---------------------------|
|
| a  Q     E  E +E   E  Q         H           H
|----2-----2--2-(2)--2--2----|----2-----------2----------|
|----3-----3--3-(3)--3--3----|----3-----------3----------|
|-0h=2-----2--2-(2)--2--2----|----2-----------2----------|
|----0-----0--0-(0)--0--0----|----0-----------0----------|
|----------------------------|---------------------------|
|----------------------------|---------------------------|


  a  E   E  E  E +E   E  Q      a  E   E  Q  a  E  E  Q     3x
|-----------------------------|-----------------------------||
|-----------------------------|----------------------------o||
|-----------------------------|-----------------------------||
|-----------------------------|-----------------------------||
|-4h=5---5--5--5-(5)--5--5----|-4h=5---5--5--4h=5--5--5----o||
|-----------------------------|-----------------------------||
|
|    E   E  E  E  E   E  E  E      E   E  Q     E  E  E  E  3x
|---10--10-10-10-10--10-10-10-|---10--10-10----10-10-10-10--||
|-----------------------------|----------------------------o||
|----7---7--7--7--7---7--7--7-|----7---7--7-----7--7--7--7--||
|-----------------------------|-----------------------------||
|-----------------------------|----------------------------o||
|-----------------------------|-----------------------------||
|
| a  Q.        E +Q      Q        +H            H           3x
|----2---------2-(2)-----2----|---(2)-----------2-----------||
|----3---------3-(3)-----3----|---(3)-----------3----------o||
|-0h=2---------2-(2)-----2----|---(2)-----------2-----------||
|----0---------0-(0)-----0----|---(0)-----------0-----------||
|-----------------------------|----------------------------o||
|-----------------------------|-----------------------------||


   Outro
      Gtr I
       Q.        E  +Q      Q       +H          Q     Q
||--------------14-(14)----------|-------------14----14----|
||o---15-------------------15----|-(15)--------------------|
||-------------------------------|-------------------------|
||-------------------------------|-------------------------|
||o------------------------------|-------------------------|
||-------------------------------|-------------------------|
|
|     Gtr III
|      E   E  E  E   E   E  E  E     E   E  Q   E  E  E  E
||----10--10-10-10--10--10-10-10-|--10--10-10--10-10-10-10-|
||o------------------------------|-------------------------|
||-----7---7--7--7---7---7--7--7-|---7---7--7---7--7--7--7-|
||-------------------------------|-------------------------|
||o------------------------------|-------------------------|
||-------------------------------|-------------------------|
|
|   Gtr II
|   a  Q      E  E  +E   E  Q        H          H
||-----2------2--2--(2)--2--2----|---2----------2----------|
||o----3------3--3--(3)--3--3----|---3----------3----------|
||--0h=2------2--2--(2)--2--2----|---2----------2----------|
||-----0------0--0--(0)--0--0----|---0----------0----------|
||o------------------------------|-------------------------|
||-------------------------------|-------------------------|


     Q.        E  +Q      Q       +H          Q     Q
|-------------14-(14)----------|-------------14----14----|
|---15-------------------15----|-(15)--------------------|
|------------------------------|-------------------------|
|------------------------------|-------------------------|
|------------------------------|-------------------------|
|------------------------------|-------------------------|
|
|    E   E  E  E   E   E  E  E     E   E  Q   E  E  E  E
|---10--10-10-10--10--10-10-10-|--10--10-10--10-10-10-10-|
|------------------------------|-------------------------|
|----7---7--7--7---7---7--7--7-|---7---7--7---7--7--7--7-|
|------------------------------|-------------------------|
|------------------------------|-------------------------|
|------------------------------|-------------------------|
|
| a  Q.        E  +Q      Q       +H          H
|----2---------2--(2)-----2----|--(2)---------2----------|
|----3---------3--(3)-----3----|--(3)---------3----------|
|-0h=2---------2--(2)-----2----|--(2)---------2----------|
|----0---------0--(0)-----0----|--(0)---------0----------|
|------------------------------|-------------------------|
|------------------------------|-------------------------|


     Q.        E  +Q      Q       +H          Q     Q
|-------------14-(14)----------|-------------14----14----|
|---15-------------------15----|-(15)--------------------|
|------------------------------|-------------------------|
|------------------------------|-------------------------|
|------------------------------|-------------------------|
|------------------------------|-------------------------|
|
|    E   E  E  E   E   E  E  E     E   E  Q   E  E  E  E
|---10--10-10-10--10--10-10-10-|--10--10-10--10-10-10-10-|
|------------------------------|-------------------------|
|----7---7--7--7---7---7--7--7-|---7---7--7---7--7--7--7-|
|------------------------------|-------------------------|
|------------------------------|-------------------------|
|------------------------------|-------------------------|
|
| a  Q      E  E  +E   E  Q        H          H
|----2------2--2--(2)--2--2----|---2----------2----------|
|----3------3--3--(3)--3--3----|---3----------3----------|
|-0h=2------2--2--(2)--2--2----|---2----------2----------|
|----0------0--0--(0)--0--0----|---0----------0----------|
|------------------------------|-------------------------|
|------------------------------|-------------------------|


     Q.        E  +Q      Q       +Q      Q   Q     Q
|---10--------14-(14)----10----|-(10)----14---9------------||
|------------------------------|-------------------17-----o||
|------------------------------|---------------------------||
|------------------------------|---------------------------||
|------------------------------|--------------------------o||
|------------------------------|---------------------------||
|
|    E   E  E  E   E   E  E  E     E   E  Q   E  E  E  E
|---10--10-10-10--10--10-10-10-|--10--10-10--10-10-10-10---||
|------------------------------|--------------------------o||
|----7---7--7--7---7---7--7--7-|---7---7--7---7--7--7--7---||
|------------------------------|---------------------------||
|------------------------------|--------------------------o||
|------------------------------|---------------------------||
|
| a  Q.        E  +Q      Q       +H          H
|----2---------2--(2)-----2----|--(2)---------2------------||
|----3---------3--(3)-----3----|--(3)---------3-----------o||
|-0h=2---------2--(2)-----2----|--(2)---------2------------||
|----0---------0--(0)-----0----|--(0)---------0------------||
|------------------------------|--------------------------o||
|------------------------------|---------------------------||


       |--3---|  |--3---|  |---3---|  |--3---|
       E E    E  E E    E  E  E    E  E E    E
||---------------------------------------------|
||o---10p7-------8p7------10p=7-------8p7------|
||------------7---------7----------7---------7-|
||---------------------------------------------|
||o--------------------------------------------|
||---------------------------------------------|
|
|      E    E    E    E    E     E    E    E
||----10---10---10---10---10----10---10---10---|
||o--------------------------------------------|
||-----7----7----7----7----7-----7----7----7---|
||---------------------------------------------|
||o--------------------------------------------|
||---------------------------------------------|
|
|   a  Q         E    E   +E     E    Q
||-----2---------2----2---(2)----2----2--------|
||o----3---------3----3---(3)----3----3--------|
||--0h=2---------2----2---(2)----2----2--------|
||-----0---------0----0---(0)----0----0--------|
||o--------------------------------------------|
||---------------------------------------------|


   |--3---|  |--3---|  |--3---|  |--3---|      |--3---|  |--3---|  |---3---|  |--3---|
   E E    E  E E    E  E E    E  E E    E      E E    E  E E    E  E  E    E  E E    E
|-----------------------------------------|---------------------------------------------|
|-10p7-------8p7------10p7-------8p7------|---12p9------10p9------12p=9------10p9-------|
|---------7---------7---------7---------7-|-----------9---------9----------9---------9--|
|-----------------------------------------|---------------------------------------------|
|-----------------------------------------|---------------------------------------------|
|-----------------------------------------|---------------------------------------------|
|
|  E    E    E    E    E    E    E    E        E    E    E    E    E     E    E    E
|-10---10---10---10---10---10---10---10---|---10---10---10---10---10----10---10---10----|
|-----------------------------------------|---------------------------------------------|
|--7----7----7----7----7----7----7----7---|----7----7----7----7----7-----7----7----7----|
|-----------------------------------------|---------------------------------------------|
|-----------------------------------------|---------------------------------------------|
|-----------------------------------------|---------------------------------------------|
|
|  H                   H                    a  Q.             E   +Q          Q
|--2-------------------2------------------|----2--------------2---(2)---------2---------|
|--3-------------------3------------------|----3--------------3---(3)---------3---------|
|--2-------------------2------------------|-0h=2--------------2---(2)---------2---------|
|--0-------------------0------------------|----0--------------0---(0)---------0---------|
|-----------------------------------------|---------------------------------------------|
|-----------------------------------------|---------------------------------------------|


   |---3---|  |--3---|  |--3---|  |--3---|      |---3----|  |---3---|  |----3----|  |---3----|
   E  E    E  E E    E  E E    E  E E    E      E  E     E  E  E    E  E   E     E  E  E     E
|------------------------------------------|---------------------------------------------------|
|-12p=9------10p9------12p9------10p9------|---15p12-------13p12------15p=12-------13p12-------|
|----------9---------9---------9---------9-|------------12---------12-----------12----------12-|
|------------------------------------------|---------------------------------------------------|
|------------------------------------------|---------------------------------------------------|
|------------------------------------------|---------------------------------------------------|
|
|  E     E    E    E    E    E    E    E        E     E     Q          E      E     E     E
|-10----10---10---10---10---10---10---10---|---10----10----10---------10-----10----10----10----|
|------------------------------------------|---------------------------------------------------|
|--7-----7----7----7----7----7----7----7---|----7-----7-----7----------7------7-----7-----7----|
|------------------------------------------|---------------------------------------------------|
|------------------------------------------|---------------------------------------------------|
|------------------------------------------|---------------------------------------------------|
|
| +H                    H                    a  Q.               E    +Q            Q
|-(2)-------------------2------------------|----2----------------2----(2)-----------2----------|
|-(3)-------------------3------------------|----3----------------3----(3)-----------3----------|
|-(2)-------------------2------------------|-0h=2----------------2----(2)-----------2----------|
|-(0)-------------------0------------------|----0----------------0----(0)-----------0----------|
|------------------------------------------|---------------------------------------------------|
|------------------------------------------|---------------------------------------------------|


   |----3----|  |---3----|  |---3----|  |---3----|
   E   E     E  E  E     E  E  E     E  E  E     E
|-----------------------------------------------------|
|-15p=12-------13p12-------15p12-------13p12----------|
|-----------12----------12----------12----------12----|
|-----------------------------------------------------|
|-----------------------------------------------------|
|-----------------------------------------------------|
|
|  E      E     E     E     E     E     E     E
|-10-----10----10----10----10----10----10----10-------|
|-----------------------------------------------------|
|--7------7-----7-----7-----7-----7-----7-----7-------|
|-----------------------------------------------------|
|-----------------------------------------------------|
|-----------------------------------------------------|
|
| +H                        H
|-(2)-----------------------2-------------------------|
|-(3)-----------------------3-------------------------|
|-(2)-----------------------2-------------------------|
|-(0)-----------------------0-------------------------|
|-----------------------------------------------------|
|-----------------------------------------------------|


     |---3----|  |---3----|  |----3----|  |---3----|
     E  E     E  E  E     E  E   E     E  E  E     E
|----------------------------------------------------|
|---17p14-------15p14-------17p=14-------15p14-------|
|------------14----------14-----------14----------14-|
|----------------------------------------------------|
|----------------------------------------------------|
|----------------------------------------------------|
|
|    E     E     E     E     E      E     E     E
|---10----10----10----10----10-----10----10----10----|
|----------------------------------------------------|
|----7-----7-----7-----7-----7------7-----7-----7----|
|----------------------------------------------------|
|----------------------------------------------------|
|----------------------------------------------------|
|
| a  Q.                E    +Q            Q
|----2-----------------2----(2)-----------2----------|
|----3-----------------3----(3)-----------3----------|
|-0h=2-----------------2----(2)-----------2----------|
|----0-----------------0----(0)-----------0----------|
|----------------------------------------------------|
|----------------------------------------------------|


   |----3----|  |--3--|  |---3----|  |---3----|
   E   E     E  E  E  E  E  E     E  E  E     E
|------------------------------------------------||
|-17p=14-------15p14----17p14-------15p14-------o||
|-----------14-------14----------14----------14--||
|------------------------------------------------||
|-----------------------------------------------o||
|------------------------------------------------||
|
|  E      E     Q        E     E     E     E
|-10-----10----10-------10----10----10----10-----||
|-----------------------------------------------o||
|--7------7-----7--------7-----7-----7-----7-----||
|------------------------------------------------||
|-----------------------------------------------o||
|------------------------------------------------||
|
| +H                     H
|-(2)--------------------2-----------------------||
|-(3)--------------------3----------------------o||
|-(2)--------------------2-----------------------||
|-(0)--------------------0-----------------------||
|-----------------------------------------------o||
|------------------------------------------------||


Duration Legend
---------------
W - whole; H - half; Q - quarter; E - 8th; S - 16th; T - 32nd; X - 64th; a - acciaccatura
+ - note tied to previous; . - note dotted; .. - note double dotted
Uncapitalized letters represent notes that are staccato (1/2 duration)
Irregular groupings are notated above the duration line
Duration letters will always appear directly above the note/fret number it represents the
duration for.  Duration letters with no fret number below them represent rests.  Multi-
bar rests are notated in the form Wxn, where n is the number of bars to rest for.  Low
melody durations appear below the staff

Tablature Legend
----------------
 h   - hammer-on
 p   - pull-off
 b   - bend
 pb  - pre-bend
 r   - bend release (if no number after the r, then release immediately)
 /\  - slide into or out of (from/to "nowhere")
 s   - legato slide
 S   - shift slide
  - natural harmonic
[n]  - artificial harmonic
n(n) - tapped harmonic
 ~   - vibrato
 tr  - trill
 T   - tap
 TP  - trem. picking
 PM  - palm muting
\n/  - tremolo bar dip; n = amount to dip
 \n  - tremolo bar down
 n/  - tremolo bar up
/n\  - tremolo bar inverted dip
 =   - hold bend; also acts as connecting device for hammers/pulls
 <>  - volume swell (louder/softer)
 x   - on rhythm slash represents muted slash
 o   - on rhythm slash represents single note slash

Misc Legend
-----------
 |  - bar
||  - double bar
||o - repeat start
o|| - repeat end
*|  - double bar (ending)
 :  - bar (freetime)
 $  - Segno
 &  - Coda
Tempo markers -  = BPM(8/16=s8/s16), where s8 = swing 8ths, s16 = swing 16ths
comments
We did not receive enough feedback on this tab! Please rate:
print report bad tab
1 2 3 4 5
I want to post or [tab]
guest
You may want to rate the tab now too:
select rating
Please do not post tabs as comments. Select "correction" instead!