Oops, an error
Loading. Please wait.

Big Weekend bass

13 views 1 this week
no commentswrite comment
1 2 3 4 5
3 more votes to show rating
add to favorites
×
Save as Personal and add changes to this tab that will be seen only by you. Learn more ›
×
You can save this tab as Personal to edit and correct it or add notes. All changes will be seen only by you. Learn more »
launch autoscroll
font size
0
reset
guitar tuner
edit
Autoscroll
slow
fast
+/-
esc
set tempo
stop
About this tab version
Fully written out, no repeats, measures written at tempo 194 (double speed). Was this info helpful? Yes No
[Intro]

G|-----------------|-----------------|-----------------|-----------------|
D|-0-------0-----0-|-0-------0-------|-0-------0-------|-0-------0-------|
A|-----------------|-----------------|-----------------|-----------------|
E|-----------------|-----------------|-----------------|-----------------|


[Verse]

G|-----------------|-----------------|-----------------|-----------------|
D|-0-------0-------|-0-------0-------|-0-------0-------|-0-------0-------|
A|-----------------|-----------------|-----------------|-----------------|
E|-----------------|-----------------|-----------------|-----------------|

G|-----------------|-----------------|-----------------|-----------------|
D|-0-------0-------|-0-------0-------|-0-------0-------|-0-------0-------|
A|-----------------|-----------------|-----------------|-----------------|
E|-----------------|-----------------|-----------------|-----------------|

G|-----------------|-----------------|-----------------|-----------------|
D|-----------------|-----------------|-----------------|-----------------|
A|-0-------0-----0-|-0-------0-------|-0-------0-------|-0-------0---4---|
E|-----------------|-----------------|-----0-------0---|-----0-----------|

G|-----------------|-----------------|-----------------|-----------------|
D|-0-------0-----0-|-0-------0-------|-0-------0-------|-0-------0-------|
A|-----------------|-----------------|-----------------|-------------0---|
E|-----------------|-----------------|-----------------|-----------------|

G|-----------------|-----------------|-----------------|-----------------|
D|-0-------0-----0-|-0-------0-------|-0-------0-------|-0-------0-------|
A|-----------------|-----------------|-----------------|-------------0---|
E|-----------------|-----------------|-----------------|-----------------|

G|-----------------|-----------------|-----------------|-----------------|
D|-0-------0-------|-0-------0-------|-0-------0-------|-0-------0-------|
A|-----------------|-----------------|-----------------|-------------4---|
E|-----------------|-----------------|-----------------|-----------------|

G|-----------------|-----------------|-----------------|-----------------|
D|-----------------|-----------------|-----------------|-----------------|
A|-0-------0-----0-|-0-------0-------|-0-----0-0-------|-0-----0-0---4---|
E|-----------------|-----------------|-----------------|-----------------|

G|-----------------|-----------------|-----------------|-----------------|
D|-0-------0-----0-|-0-------0-------|-0-------0-----0-|-0-------0-------|
A|-----------------|-----------------|-----------------|-----------------|
E|-----------------|-----------------|-----------------|-----------------|


[Chorus]

G|-----------------|-----------------|-----------------|-----------------|
D|-2-------0-------|-----------------|-----------------|-----------------|
A|-----------------|-0-----0-0-------|-0-----0-0---0---|-0-----0-0-------|
E|-----------------|-----------------|-----------------|-----------------|

G|-----------------|-----------------|-----------------|-----------------|
D|-2-------0-------|-----------------|-----------------|-----------------|
A|-----------------|-0-----0-0-------|-0-----0-0-------|-0-----0-0-------|
E|-----------------|-----------------|-----------------|-----------------|

G|-----------------|-----------------|-----------------|-----------------|-----------------|
D|-2-------0-------|-----------------|-----------------|-----------------|-----------------|
A|-----------------|-0-----0-0-------|-0-----0-0---0---|-0-----0-0-------|-0-----0-0---4---|
E|-----------------|-----------------|-----------------|-----------------|-----------------|

G|-----------------|-----------------|-----------------|-----------------|
D|-0-----0-0-------|-0-----0-0-------|-0-----0-0-------|-0-------0-------|
A|-----------------|-----------------|-----------------|-------------0---|
E|-----------------|-----------------|-----------------|-----------------|


[Verse]

G|-----------------|-----------------|-----------------|-----------------|
D|-0-------0-------|-0-------0-------|-0-------0-------|-0---------------|
A|-----------------|-----------------|-----------------|---------0---4---|
E|-----------------|-----------------|-----------------|-----------------|

G|-----------------|-----------------|-----------------|-----------------|
D|-0-------0-------|-0-----0---------|-0-------0-------|-0-----0-0-------|
A|-----------------|---------0---4---|-----------------|-------------4---|
E|-----------------|-----------------|-----------------|-----------------|

G|-----------------|-----------------|-----------------|-----------------|
D|-----------------|-----------------|-----------------|-----------------|
A|-0-------0-----0-|-0-------0-------|-0-------0-------|-0-------0---4---|
E|-----------------|-----------------|-----0-------0---|-----0-----------|

G|-----------------|-----------------|-----------------|-----------------|
D|-0-------0-------|-0-------0-------|-0-------0-------|-0-------0-------|
A|-----------------|-----------------|-----------------|-------------0---|
E|-----------------|-----------------|-----------------|-----------------|


[Chorus]

G|-----------------|-----------------|-----------------|-----------------|
D|-2-------0-------|-----------------|-----------------|-----------------|
A|-----------------|-0-----0-0-------|-0-----0-0---0---|-0-----0-0-------|
E|-----------------|-----------------|-----------------|-----------------|

G|-----------------|-----------------|-----------------|-----------------|
D|-2-------0-------|-----------------|-----------------|-----------------|
A|-----------------|-0-----0-0-------|-0-----0-0-------|-0-----0-0-------|
E|-----------------|-----------------|-----------------|-----------------|

G|-----------------|-----------------|-----------------|-----------------|-----------------|
D|-2-------0-------|-----------------|-----------------|-----------------|-----------------|
A|-----------------|-0-----0-0-------|-0-----0-0-------|-0-----0-0-------|-0-----0-0---4---|
E|-----------------|-----------------|-----------------|-----------------|-----------------|

G|-----------------|-----------------|-----------------|-----------------|
D|-0-----0-0-------|-0-----0-0-------|-0-----0-0-------|-0-----0---------|
A|-----------------|-----------------|-----------------|---------0---4---|
E|-----------------|-----------------|-----------------|-----------------|


[Solo]

G|-----------------|-----------------|-----------------|-----------------|
D|-0-------0-------|-0-------0-------|-0-------0-------|-0---0-----------|
A|-----------------|-----------------|-----------------|---------0---4---|
E|-----------------|-----------------|-----------------|-----------------|

G|-----------------|-----------------|-----------------|-----------------|
D|-0-------0-------|-0-------0-------|-0-------0-------|-0-----0-0-------|
A|-----------------|-----------------|-----------------|-------------4---|
E|-----------------|-----------------|-----------------|-----------------|

G|-----------------|-----------------|-----------------|-----------------|
D|-----------------|-----------------|-----------------|-----------------|
A|-0-------0-----0-|-0-------0-----0-|-0-------0-------|-0---0---0---4---|
E|-----------------|-----------------|-----------------|-----------------|

G|-----------------|-----------------|-----------------|-----------------|
D|-0-------0-------|-0---------------|-0-------0-------|-0-------0-------|
A|-----------------|---------0---4---|-----------------|-------------0---|
E|-----------------|-----------------|-----------------|-----------------|

G|-----------------|-----------------|-----------------|-----------------|
D|-2-------0-------|-----------------|-----------------|-----------------|
A|-----------------|-0-----0-0-------|-0-----0-0---0---|-0-----0-0-------|
E|-----------------|-----------------|-----------------|-----------------|

G|-----------------|-----------------|-----------------|-----------------|
D|-2-------0-------|-----------------|-----------------|-----------------|
A|-----------------|-0-----0-0-------|-0-----0-0-------|-0-----0-0---0---|
E|-----------------|-----------------|-----------------|-----------------|

G|-----------------|-----------------|-----------------|-----------------|-----------------|
D|-2-------0-------|-----------------|-----------------|-----------------|-----------------|
A|-----------------|-0-----0-0-------|-0-----0-0-------|-0-----0-0-------|-0-----0-0---4---|
E|-----------------|-----------------|-----------------|-----------------|-----------------|

G|-----------------|-----------------|-----------------|-----------------|
D|-0-------0-------|-0-------0-------|-0-------0-----0-|-0-------0-------|
A|-----------------|-----------------|-----------------|-------------0---|
E|-----------------|-----------------|-----------------|-----------------|


[Verse]

G|-----------------|-----------------|-----------------|-----------------|
D|-0-------0-------|-0-----0-0-------|-0-------0-------|-0-----0---------|
A|-----------------|-----------------|-----------------|---------0---4---|
E|-----------------|-----------------|-----------------|-----------------|

G|-----------------|-----------------|-----------------|-----------------|
D|-0-------0-------|-0-----0-0-------|-0-------0-------|-0-----0-0-------|
A|-----------------|-----------------|-----------------|-------------4---|
E|-----------------|-----------------|-----------------|-----------------|

G|-----------------|-----------------|-----------------|-----------------|
D|-----------------|-----------------|-----------------|-----------------|
A|-0-------0-------|-0-------0-------|-0-------0-----0-|-0---0---0---4---|
E|-----------------|-----------------|-----------------|-----------------|

G|-----------------|-----------------|-----------------|-----------------|
D|-0-------0-------|-0-----0-0-------|-0-------0-------|-0-----0-0-------|
A|-----------------|-----------------|-----------------|-------------0---|
E|-----------------|-----------------|-----------------|-----------------|


[Chorus]

G|-----------------|-----------------|-----------------|-----------------|
D|-2-------0-------|-----------------|-----------------|-----------------|
A|-----------------|-0-----0-0-------|-0-----0-0-------|-0-----0-0-------|
E|-----------------|-----------------|-----------------|-----------------|

G|-----------------|-----------------|-----------------|-----------------|
D|-2-------0-------|-----------------|-----------------|-----------------|
A|-----------------|-0-----0-0-------|-0-----0-0-------|-0-----0-0-------|
E|-----------------|-----------------|-----------------|-----------------|

G|-----------------|-----------------|-----------------|-----------------|-----------------|
D|-2-------0-------|-----------------|-----------------|-----------------|-----------------|
A|-----------------|-0-----0-0-------|-0-----0-0-------|-0-----0-0-------|-0-----0-0---4---|
E|-----------------|-----------------|-----------------|-----------------|-----------------|

G|-----------------|-----------------|-----------------|-----------------|
D|-0-----0-2---4---|-5-----4-----2---|-0---------------|-(0)-------------|
A|-----------------|-----------------|-----------------|-----------------|
E|-----------------|-----------------|-----------------|-----------------|



Hope you enjoy! Simple groove. Let me know if you have corrections!

************************************

| (n) Ghost note

************************************

            
            
Suggest correction
Creating personal tab
Creating personal tab
You can edit any tab online and save it as your Personal.

You can edit, replace or remove any tab part or add personal notes – all changes will be seen only by you.

Personal tabs can be accessed anytime from any device, even offline.
Learn more »
Give kudos to tab author, rate the tab!
1 2 3 4 5
comments
print report bad tab
guest
You may want to rate the tab now too:
select rating
Wanna post a correction for this tab? Suggest correction