Oops, an error
Loading. Please wait.

Break Down Tab

version 1
version 1

Whole song

21,859 views 6 this week
2 commentsread comments
1 2 3 4 5
accurate
x 5
add to favorites
launch autoscroll
font size
0
reset
how to read this tab
guitar tuner
Autoscroll
slow
fast
+/-
esc
set tempo
stop
Help us to improve Ultimate-Guitar.com Take our survey!
×
----------------------------------------------------------------------------
			     Breakdown - Tom Petty
----------------------------------------------------------------------------
Tabbed by:    Ryan Ruikkie
Email:        ruikkier@yahoo.com

Tuning: Standard

e|-------------------------------------------------------------------------|
B|----10--8--10---------------------------------10/8-------7/5-------------|
G|---------------9--9--7--9----------------------9/7-------7/5-------------|
D|---------------------------7--7--5--7------------------------------------|
A|---------------------------------------7---------------------------------|
E|-------------------------------------------------------------------------|

		Am    G            Am    G
		Its alright if you love me, 
		Am    G            Am    G
		Its alright if you don't
		Am        G            Am      G         
	  	I'm not afraid of you runnin away honey, 
		Am          G         Fmaj7
		I got this feeling you won't
		    Am             G       Am    G   
		Say there aint no use in pretending, 
		Am   G             Am   G
		Your eyes give you away

		Am         G             Am          G     
		Something inside you is feeling like I do,
		Am           G      Fmaj7
		We said all there is to say

		Fmaj7    G/f    Am/f   G/f

		Am    G   F            G             
		Breakdown go ahead and give it to me 
		Am    G    F                   G
		Breakdown take me through the night
		Am    G   F           G           
		Breakdown go ahead give it to me, 
		Am    G        Fmaj7
		Breakdown its alright, 


		Fmaj7  G/f  Am/f  G/f  Fmaj7  G/f  Am/f  G/f    Am   G Am  G
	                       its alright          its alright
Suggest correction
comments
print report bad tab
2 comments total.
0 reply
SBC_lead 10 wrote on August 29 2004, 12:00 am

nice tab.... but id rather play it like this:

e------------------------------------------
b-10p8h10---------------------------8--10--
g---------9---9p7h9----------------9-------
d-------------------7---7p5h7--------------
a-----------------------------7------------
e------------------------------------------

0 reply
Talflick 496 wrote on February 3 2007, 07:04 pm

the fmaj7 g/f am/f g/f is wrong, i think...
it sounds wrong to me...
can you define your chords?

guest
You may want to rate the tab now too:
select rating
Wanna post a correction for this tab? Suggest correction