Oops, an error
Loading. Please wait.

Breakdown Tab

version 2
version 2

Whole song

Interactive

81,282 views 189 this week
3 commentsread comments
1 2 3 4 5
x 105
add to favorites
×
Save as Personal and add changes to this tab that will be seen only by you. Learn more ›
×
You can save this tab as Personal to edit and correct it or add notes. All changes will be seen only by you. Learn more »
save as personal
new!
launch autoscroll
font size
0
reset
how to read this tab
guitar tuner
backing track
0:00
0:00
Autoscroll
slow
fast
+/-
esc
set tempo
stop
Author
Difficulty
intermediate
[Intro]

Fill 1 

(only played at the beginning)
e|--8-------------------------------------------------|
B|----10h8---8-10h8-----------------------------------|
G|---------9------------------------------------------|
D|----------------------------------------------------|
A|----------------------------------------------------|
E|----------------------------------------------------|


Riff 

(Played throughout, including the outro)
e|----------------------------------------------------|
B|--10/8/10-------------------------------------------|
G|-----------9--9/7/9---------------------------------|
D|---------------------7--7/5/7-----------------------|
A|-------------------------------7--------------------|
E|----------------------------------------------------|
 
 
Fill 2 

(varations of this fill are played with the riff)
The solo is based off this too.

e|--5-------------------------------------------------|
B|--5--8---5--5---------------------------------------|
G|---------------7------------------------------------|
D|----------------------------------------------------|
A|----------------------------------------------------|
E|----------------------------------------------------|


Riff 

(Played throughout, including the outro)
e|----------------------------------------------------|
B|--10/8/10-------------------------------------------|
G|-----------9--9/7/9---------------------------------|
D|---------------------7--7/5/7-----------------------|
A|-------------------------------7--------------------|
E|----------------------------------------------------|
 
 
Fill 2 

(varations of this fill are played with the riff)
The solo is based off this too.

e|--5-------------------------------------------------|
B|--5--8---5--5---------------------------------------|
G|---------------7------------------------------------|
D|----------------------------------------------------|
A|----------------------------------------------------|
E|----------------------------------------------------|


[Verse]

Am    G            Am    G
Its alright if you love me,
Am    G            Am    G
Its alright if you don't
Am        G            Am      G
I'm not afraid of you runnin away honey,
Am          G         Fmaj7
I got this feeling you won't
    Am             G       Am    G
Say there aint no use in pretending,
Am   G             Am   G
Your eyes give you away

Am         G             Am          G
Something inside you is feeling like I do,
Am           G      Fmaj7
We said all there is to say


[Interlude]

Fmaj7    G/F    Am/F   G/F


[Bridge]

Am    G   F            G
Breakdown go ahead and give it to me
Am    G    F                   G
Breakdown take me through the night
Am    G   F           G
Breakdown go ahead give it to me,
Am    G        Fmaj7
Breakdown its alright,


[Interlude]

Fmaj7  G/F  Am/F  G/F  Fmaj7  G/F  Am/F  G/F    Am   G Am  G
                   its alright          its alright



************************************

| h  Hammer-on
| /  Slide up

************************************
Suggest correction
comments
print report bad tab
3 comments total.
0 reply
Rhyderr 179 May 07, 2014 06:36 PM

The chorus 3rd line: Breakdown now I'm standing here can't you see.
Great job otherwise!

0 reply
Zaphod73 10 May 14, 2016 06:59 PM

You forgot the last verse:

"It's alright if you must go,
I'll understand if you don't
You say good-bye right now,
I'll still survive somehow,
why did we let this drag on?"

guest
You may want to rate the tab now too:
select rating
Wanna post a correction for this tab? Suggest correction