Oops, an error
Loading. Please wait.

Dont Come Around Here No More Tab

version 1
version 1

Whole song

Interactive

11,625 views 3 this week
2 commentsread comments
1 2 3 4 5
2 more votes to show rating
add to favorites
launch autoscroll
font size
0
reset
how to read this tab
guitar tuner
Autoscroll
slow
fast
+/-
esc
set tempo
stop
Help us to improve Ultimate-Guitar.com Take our survey!
×
"Dont Come Around Here No More" By Tom Petty

Tab by: Pat Glander
Email:thatonehippie@hotmail.com
Tuning: standard

this is my first tab ever and i noticed there wasnt the finger picking part of the song 
so i thought id figure it out. the timing is not perfect so listen to the song.

Intro:
e|----------------------------5-5----|       X2
B|-------6--3---------6-------6-6----|
G|----5------------5-----3----5-5----|
D|-----------------------------------|
A|-----------------------------------|
E|-----------------------------------|

Verses:
e|------3-----3------5-----5------7-----7------5-----5---------|
B|-------------------------------------------------------------|
G|-------------------------------------------------------------|
D|---5------5-----5------5-----5------5-----5------5-----------|
A|--5-5----5-----5-5----5-----5-5----5-----5-5----5------------|
E|-------------------------------------------------------------|

yea idk about the "i give it up" part. its just a cello playing a scale. you could put 
chords in there but i think continuing with the verse would sound better since most of 
song is finger picked.
Suggest correction
Give kudos to tab author, rate the tab!
1 2 3 4 5
comments
print report bad tab
2 comments total.
0 reply
the_who 30 Nov 05, 2007 12:24 PM

THe picking isn't bad but needs to be upped into F.

0 reply
Badfish13 20 Jun 03, 2008 12:07 AM

you need to repeat the C note at the 5th fret after the D# at the 6th.

example:
this is what you have

e|----------------------------5-5----| X2
B|-------6--3---------6-------6-6----|
G|----5------------5-----3----5-5----|
D|-----------------------------------|
A|-----------------------------------|
E|-----------------------------------|


here is what i think it should be
e|----------------------------5-5----| X2
B|-------6--3---------6-------6-6----|
G|----5---5--------5---5-3----5-5----|
D|-----------------------------------|
A|-----------------------------------|
E|-----------------------------------|

guest
You may want to rate the tab now too:
select rating
Wanna post a correction for this tab? Suggest correction