Oops, an error
Loading. Please wait.

Dont Do Me Like That Bass Tab

version 1
version 1

Whole song

Interactive

3,802 views 3 this week
1 commentread comment
1 2 3 4 5
x 4
add to favorites
launch autoscroll
font size
0
reset
guitar tuner
Autoscroll
slow
fast
+/-
esc
set tempo
stop
Help us to improve Ultimate-Guitar.com Take our survey!
×
Author
Difficulty
novice
this is one of my favorite tom petty songs,it took me like 10 minutes to figure this out 
bass,this is my first bass tab so dont be so critic,thanks alot.any questions or 
email me at fadedblack17@yahoo.com

Tom Petty:Dont Do Me Like That


     INTRO
G----------------------------------------------------------------|
D----------------------------------------------------------------|
A----------------------------------------------------------------|
E--2-2---0-0---1-1---3-3-----------------------------------------|


     VERSE
G----------------------------------------------------------------|
D----------------------------------------------------------------|
A----------------------------------------------------------------|
E--2-2---1-1---3-3---1-1-----------------------------------------|


    CHORUS
G----------------\-----------------------------------------------|
D----------------\-----------------------------------------------|
A----------------\-----------------------------------------------|
E----3-3---3-3---\---0-0---3-3-----------------------------------|


    BRIDGE
G----------------------------------------------------------------|
D----------------------------------------------------------------|
A----------------------------------------------------------------|
E--3-3-3-3-3-3---5-5-5-5-5-5---1-1-1-1-1-3-----------------------|


    BRIDGE(contined)
G----------------------------------------------------------------|
D----------------------------------------------------------------|
A----------------------------------------------------------------|
E--3-3-3-3-3-3---5-5-5-5-5-5---3-3-3-3-3-3-2---------------------|

well thats it pretty simple,its all played on the E string,well enjoy.
Suggest correction
comments
print report bad tab
1 comment total.
0 reply
chevylease 21 Jun 22, 2014 03:59 PM

Lack of accuracy.

guest
You may want to rate the tab now too:
select rating
Wanna post a correction for this tab? Suggest correction