Oops, an error
Loading. Please wait.

Dont Fade On Me Tab

version 2
version 2

Whole song

7,632 views 27 this week
2 commentsread comments
1 2 3 4 5
x 4
add to favorites
launch autoscroll
font size
0
reset
how to read this tab
guitar tuner
Autoscroll
slow
fast
+/-
esc
set tempo
stop
Help us to improve Ultimate-Guitar.com Take our survey!
×
Tuning
D A D G B E
(Edited by clm12704)

Tuning is Dropped D

Intro:

 D (listen for pick pattern)

and an occasional

E ---------------------|
B ----------------3----|
G ----------------2----|
D---3p0-----------0----|
A -----3p0-------------|
D --------3b---0-------|

Verse:

   Am7      F     G     D

E ----------------------------------|
B ----1--------0----0-------3-----3-|
G ------0------0----0-------2-----2-|
D --2----2------------------0-----0-|
A -0-0------------------------------|
D ----------3-----5-----0------0----|

'
Chorus:

   F     C     D
E -------------------|
B -6-----1-----3-----|
G -x-----0-----x-----|
D--7-----2-----4-----|
A -8-----3-----5-----|
D -------------0-----|

End with "no don't fade on me [hard strum on open D]" then

Riff at End of Chorus
E ---------------------|
B ----------------3----|
G ----------------2----|
D---3p0-----------0----|
A -----3p0-------------|
D --------3b---0-------|


Lyrics:

I remember you so clearly
The first one through the door
I return to find you drifting
Too far from the shore

I remember feeling this way
You can lose it without knowing
You wake up and you don't notice
Which way the wind is blowing

Don't fade
Don't fade on me

You were the one who made things different
You were the one who took me in
You were the one thing I could count on
Above all you were my friend

Don't fade
Don't fade on me

Well your clothes hang on a wire
And the sun is overhead
But today you are too weary
To even leave your bed

Was it love that took you under?
Or did you know too much?
Was it something you could picture?
But never could quite touch?

Don't fade
Suggest correction
comments
print report bad tab
2 comments total.
0 reply
HenryKrinkle 10 Oct 08, 2013 01:39 PM

Thanks for the tab...the only correct one for this song in my opinion.

0 reply
clm12704 1,512 Jun 19, 2015 04:53 PM

Yep. This is the only correct one for sure.

guest
You may want to rate the tab now too:
select rating
Wanna post a correction for this tab? Suggest correction