Oops, an error
Loading. Please wait.

Even The Losers Tab

version 1
version 1

Whole song

Interactive

8,820 views 18 this week
1 commentread comment
1 2 3 4 5
excellent!
x 6
add to favorites
launch autoscroll
font size
0
reset
how to read this tab
guitar tuner
Autoscroll
slow
fast
+/-
esc
set tempo
stop
Help us to improve Ultimate-Guitar.com Take our survey!
×
Contributor
Difficulty
novice
Hey everybody! hello from Argentina! I tab this song in guitar pro format buy i got 
emails from people who don´t have that great tool installed in their computers! so here is 
the REGULAR TAB!!! I still recomend you to download the GP!

As usual in a typical TOM PETTY song it is a "EASY PLAYING GREAT SONG" so good luck! the 
tab im quite sure is 100 % correct! Always listen to the record for timing!

By for now and DAMN THE TORPEDOES!!
Tintinvox!

Standar Tunning:

Intro (Clean Guitar):


E||-------|--------0---------0-----|------------------------|
B||-------|-----2---------------2--|--------2---------2-----|
G||--x----|--2--------0------------|-----2---------------2--|
D||-------|------------------------|--4--------2------------|
A||-------|------------------------|------------------------|
E||-------|------------------------|------------------------|



--------0---------0-----|------------------------|
-----2---------------2--|--------2---------2-----|
--2--------0------------|-----2---------------2--|
------------------------|--4--------2------------|
------------------------|------------------------|
------------------------|------------------------|

Verse 1:

There are two guitars a clean and a distortion one basicly playing the same:

   D     A             G      A
Well, it was nearly all summer we sat on your roof

--2------0----------|--3------0----------|--0------0----------|
--3------2----------|--3------2----------|--2------2----------|
--2------2----------|--0------2----------|--2------2----------|
--0------2----------|--0------2----------|--2------2----------|
---------0----------|--2------0----------|--0------0----------|
--------------------|--3-----------------|--------------------|

                       D      A             G      G
             Yeah, we smoked cigarettes and we stared at the moon.

--0------0----------|--2------0----------|--3------3----------|
--2------2----------|--3------2----------|--3------3----------|
--2------2----------|--2------2----------|--0------0----------|
--2------2----------|--0------2----------|--0------0----------|
--0------0----------|---------0----------|--2------2----------|
--------------------|--------------------|--3------3----------|

                                            D      A
                                    And I show you stars you

--3------3----------|--3------3----------|--2------0----------|
--3------3----------|--3------3----------|--3------2----------|
--0------0----------|--0------0----------|--2------2----------|
--0------0----------|--0------0----------|--0------2----------|
--2------2----------|--2------2----------|---------0----------|
--3------3----------|--3------3----------|--------------------|

  G      D
never could see                                      Baby, it couldn't

--3------2----------|--2------2----------|--2------2----------|
--3------3----------|--3------3----------|--3------3----------|
--0------2----------|--2------2----------|--2------2----------|
--0------0----------|--0------0----------|--0------0----------|
--2-----------------|--------------------|--------------------|
--3-----------------|--------------------|--------------------|

  D      A             C
been that easy to forget about me                         Baby, time

--2------0----------|--0----------------|-------(0)--------|
--3------2----------|--1----------------|-------(1)--------|
--2------2----------|--0----------------|-------(0)--------|
--0------2----------|--2----------------|-------(2)--------|
---------0----------|--3----------------|-------(3)--------|
--------------------|-------------------|------------------|

Verse 2 (Like 1 but with Fills)

  D      A             G      A
means nothing,       anything seemed real

--2------0----------|--3------0----------|--0------0----------|
--3------2----------|--3------2----------|--2------2----------|
--2------2----------|--0------2----------|--2------2----------|
--0------2----------|--0------2----------|--2------2----------|
---------0----------|--2------0----------|--0------0----------|
--------------------|--3-----------------|--------------------|

FILL 1

e-/5--5--5--5\------|
B-/5--5-h7--5\------|
G-------------------|
D-------------------|
A-------------------|
E-------------------|
   |
   |                  D        A           G      G
   |  Yeah, you could kiss like fire and you made me feel
   |
   V
--0------0----------|--2------0----------|--3------3----------|
--2------2----------|--3------2----------|--3------3----------|
--2------2----------|--2------2----------|--0------0----------|
--2------2----------|--0------2----------|--0------0----------|
--0------0----------|---------0----------|--2------2----------|
--------------------|--------------------|--3------3----------|


                        Fill 2
                     e--------------------|-------------------|
                     B--------------------|-------------------|
                     G--7h-6--4--4--------|-------------------|
                     D-----------------5/-|-7-----------------|
                     A--------------------|-------------------|
                     E--------------------|-------------------|
                         |
                         |
                         |                  D      A
                         |     Like every word you said was
                         V
--3------3----------|--3------3----------|--2------0----------|
--3------3----------|--3------3----------|--3------2----------|
--0------0----------|--0------0----------|--2------2----------|
--0------0----------|--0------0----------|--0------2----------|
--2------2----------|--2------2----------|---------0----------|
--3------3----------|--3------3----------|--------------------|

                    e--------------------|
                    B----8/-10--10-------|
                    G--------------------|
                    D--------------------|
  G      D          A--------------------|
  meant to be       E--------------------|
                        |
                        V                 No, it couldn't have been

--3------2----------|--2------2----------|--2------2----------|
--3------3----------|--3------3----------|--3------3----------|
--0------2----------|--2------2----------|--2------2----------|
--0------0----------|--0------0----------|--0------0----------|
--2-----------------|--------------------|--------------------|
--3-----------------|--------------------|--------------------|

  D       A            C
  easy to forget about me                          Baby, even the

--2------0----------|--0----------------|------(0)---------|
--3------2----------|--1----------------|------(1)---------|
--2------2----------|--0----------------|------(0)---------|
--0------2----------|--2----------------|------(2)---------|
---------0----------|--3----------------|------(3)---------|
--------------------|-------------------|------------------|

Chorus:

  D      A             G      G             D      A
  losers                              get lucky sometimes

--2------0----------|--3------3----------|--2------0----------|
--3------2----------|--3------3----------|--3------2----------|
--2------2----------|--0------0----------|--2------2----------|
--0------2----------|--0------0----------|--0------2----------|
---------0----------|--2------2----------|---------0----------|
--------------------|--3------3----------|--------------------|

  G      G             D      A             G      G
              Even the losers                          keep a

--3------3----------|--2------0----------|--3------3----------|
--3------3----------|--3------2----------|--3------3----------|
--0------0----------|--2------2----------|--0------0----------|
--0------0----------|--0------2----------|--0------0----------|
--2------2----------|---------0----------|--2------2----------|
--3------3----------|--------------------|--3------3----------|

  G                  G       G             A
 little bit of pride             They get lucky sometimes

--3----------------|--------------------|-------------------|
--3----------------|--------------------|-------------------|
--0----------------|--------------------|--2----------------|
--0----------------|--------------------|--2----------------|
--2----------------|--5------5----------|--0----------------|
--3----------------|--3------3----------|-------------------|

Truly Rock And Roll SOLO:

A                            D           A

--0--0--0--0--0--0--3/-5--|--5--5-----5----5--5--5--|
--0--2--3--5--3--2--3/-5--|--5--5-----5----5--5--7--|
--------------------------|--------7b---------------|
--------------------------|-------------------------|
--------------------------|-------------------------|
--------------------------|-------------------------|

G            G             G           G

--5/-3--3/-5----5-----5--|--5----5--5----5--5--5--|
--5/-3--3/-5----5-----5--|--5----5--5----5--5--5--|
-------------------7b----|------------------------|
-------------------------|------------------------|
-------------------------|------------------------|
-------------------------|------------------------|

G              G             D              A

-----5--5--5----5--5/-10--|--10--10--10--12----12--12--10--|
-----5--5--5----5--5/-10--|--10--10--10--10----10--10--10--|
--7b----------------------|--------------------------------|
--------------------------|--------------------------------|
--------------------------|--------------------------------|
--------------------------|--------------------------------|

G                G                   G              G

------10--10------10--10------10--|------10--10------10--10------10--|
------10--10------10--10------10--|------10--10------10--10------10--|
--12b---------12b---------12b-----|--12b---------12b---------12b-----|
----------------------------------|----------------------------------|
----------------------------------|----------------------------------|
----------------------------------|----------------------------------|

G                G                   D               A

------10--10------10--10------10--|------10--10------10--10------10--|
------10--10------10--10------10--|------10--10------10--10------10--|
--12b---------12b---------12b-----|--12b---------12b---------12b-----|
----------------------------------|----------------------------------|
----------------------------------|----------------------------------|
----------------------------------|----------------------------------|

Achtung baby here this is a 2/4 Bar (In the record you can hear it)
|
| G             G   D                D
V
--10--12--10--10--|------10--10--10--10--10--10--10--|
2-10--10--10--10--|------10--10--10--10--10--10--10--|
-  ---------------|--12b-----------------------------|
4-----------------|----------------------------------|
------------------|----------------------------------|
------------------|----------------------------------|

D                 D                 D               A

------10--10------10--10--10--10--|------10--10------10--10--10--10--|
------10--10------10--10--10--10--|------10--10------10--10--10--10--|
--12b---------12b-----------------|--12b---------12b-----------------|
----------------------------------|----------------------------------|
----------------------------------|----------------------------------|
----------------------------------|----------------------------------|

 C                 Bridge Clean Guitar:   A     G/A
                                        Two cars parked on

--------------------|------------------|--0-----------------|
--------------------|------------------|--2------3----------|
--12~---------------|------------------|--2------4----------|
--------------------|------------------|--2------5----------|
--------------------|------------------|--0------0----------|
--------------------|------------------|--------------------|

   A    G/A       A           G/A           A      G/A
the overpass    Rocks hit the water like broken glass     I should have


--0-----------------|--0-----------------|--0-----------------|
--2------3----------|--2------3----------|--2------3----------|
--2------4----------|--2------4----------|--2------4----------|
--2------5----------|--2------5----------|--2------5----------|
--0------0----------|--0------0----------|--0------0----------|
--------------------|--------------------|--------------------|


A           G/A           A        G/A
known right then it was too good to last   God, it's such a drag when
--0-----------------|--0-----------------|--0-----------------|
--2------3----------|--2------3----------|--2------3----------|
--2------4----------|--2------4----------|--2------4----------|
--2------5----------|--2------5----------|--2------5----------|
--0------0----------|--0------0----------|--0------0----------|
--------------------|--------------------|--------------------|

  G/A                                    G/A
you're livin' in the past

-------------------|------------------|-------------------|
--3----------------|--------(3)-------|--3----------------|
--4----------------|--------(4)-------|--4----------------|
--5----------------|--------(5)-------|--5----------------|
--0----------------|------------------|--0----------------|
-------------------|------------------|-------------------|

Chorus:

Harmonic on e 12

e--<12>-----------|
   |                 D      A             G      G
   |   Baby even the losers                           Get lucky
   V
------------------|--2------0----------|--3------3----------|
---(3)------------|--3------2----------|--3------3----------|
---(4)------------|--2------2----------|--0------0----------|
---(5)------------|--0------2----------|--0------0----------|
------------------|---------0----------|--2------2----------|
------------------|--------------------|--3------3----------|

  D      A             G      G             D      A
  sometimes                        even the losers

--2------0----------|--3------3----------|--2------0----------|
--3------2----------|--3------3----------|--3------2----------|
--2------2----------|--0------0----------|--2------2----------|
--0------2----------|--0------0----------|--0------2----------|
---------0----------|--2------2----------|---------0----------|
--------------------|--3------3----------|--------------------|

  G      G             G                   G      G
                 keep a little bit of pride             They get

--3------3----------|--3----------------|--------------------|
--3------3----------|--3----------------|--------------------|
--0------0----------|--0----------------|--------------------|
--0------0----------|--0----------------|--------------------|
--2------2----------|--2----------------|--5------5----------|
--3------3----------|--3----------------|--3------3----------|

  A                                      D      A
  lucky sometimes          Baby even the losers

-------------------|------------------|--2------0----------|
-------------------|------------------|--3------2----------|
--2----------------|------------------|--2------2----------|
--2----------------|------------------|--0------2----------|
--0----------------|------------------|---------0----------|
-------------------|------------------|--------------------|

  G      G             D      A             G      G
            Get lucky sometimes                      even the

--3------3----------|--2------0----------|--3------3----------|
--3------3----------|--3------2----------|--3------3----------|
--0------0----------|--2------2----------|--0------0----------|
--0------0----------|--0------2----------|--0------0----------|
--2------2----------|---------0----------|--2------2----------|
--3------3----------|--------------------|--3------3----------|

  D      A             G      G             G
  losers                       keep a little bit of pride

--2------0----------|--3------3----------|--3----------------|
--3------2----------|--3------3----------|--3----------------|
--2------2----------|--0------0----------|--0----------------|
--0------2----------|--0------0----------|--0----------------|
---------0----------|--2------2----------|--2----------------|
--------------------|--3------3----------|--3----------------|

  G      G             A                        A
              They get lucky sometimes   oh  oh oh     oh

--------------------|-------------------|------------------|
--------------------|-------------------|------------------|
--------------------|--2----------------|-----(2)----------|
--------------------|--2----------------|-----(2)----------|
--5------5----------|--0----------------|-----(0)----------|
--3------3----------|-------------------|------------------|

OUTRO:

  D             A                  G              G
                                                    even the

--10--10--10--10--10--10--10----|--10--10--10--10--10--10--10--10--|
--10--10--10--10--10--10--10----|--10--10--10--10--10--10--10--10--|
--------------------------------|----------------------------------|
--------------------------------|----------------------------------|
--------------------------------|----------------------------------|
--------------------------------|----------------------------------|

  D             A                  G              G
losers                                               get lucky


--10--10--10--10--10--10--10----|--10--10--10--10--10--10--10----|
--10--10--10--10--10--10--10----|--10--10--10--10--10--10--10----|
--------------------------------|--------------------------------|
--------------------------------|--------------------------------|
--------------------------------|--------------------------------|
--------------------------------|--------------------------------|

  D             A                  G              G
sometimes                                              even the

--10--10--10--10--10--10--10--10--|--10--10--10--10--10--10--10--10--|
--10--10--10--10--10--10--10--10--|--10--10--10--10--10--10--10--10--|
----------------------------------|----------------------------------|
----------------------------------|----------------------------------|
----------------------------------|----------------------------------|
----------------------------------|----------------------------------|

  D             A                  G              G
  losersssss                                 oh oh oh  oh

--10--10--10--10--10--10--10--10--|------------------10--|
--10--10--10--10--10--10--10--10--|------------------10--|
----------------------------------|--------------12b-----|
----------------------------------|----------------------|
----------------------------------|----------------------|
----------------------------------|----------------------|

  D             A                  G              G
                                                     even the losersssss

------10--10------10--10------10--|------10--10--10--10--10--10--10--|
------10--10------10--10------10--|------10--10--10--10--10--10--10--|
--12b---------12b---------12b-----|--12b-----------------------------|
----------------------------------|----------------------------------|
----------------------------------|----------------------------------|
----------------------------------|----------------------------------|

  D             A                  G              G
                                                    even the losersssss

--------10--10--10--10--10--10--|------10--10------10--10------10--|
--------10--10--10--10--10--10--|------10--10------10--10------10--|
--12b---------------------------|--12b---------12b---------12b-----|
--------------------------------|----------------------------------|
--------------------------------|----------------------------------|
--------------------------------|----------------------------------|

  D             A                  G              G
                                                  even the losersssss

------10--10--10--10--10--10--10--|--------10--10--10--10--10--10--|
------10--10--10--10--10--10--10--|--------10--10--10--10--10--10--|
--12b-----------------------------|--12b---------------------------|
----------------------------------|--------------------------------|
----------------------------------|--------------------------------|
----------------------------------|--------------------------------|

  D             A                  G              G
                                                   even the losersssss

--10--10--10--10--10--10--10--10--|--10--10--10--10--10--10--10--10--|
--10--10--10--10--10--10--10--10--|--10--10--10--10--10--10--10--10--|
----------------------------------|----------------------------------|
----------------------------------|----------------------------------|
----------------------------------|----------------------------------|
----------------------------------|----------------------------------|

  D             A                  G              G
                                                   even the losersssss

--10--10--10--10--10--10--10--10--|--10--10--10--10--10--10--10--10--|
--10--10--10--10--10--10--10--10--|--10--10--10--10--10--10--10--10--|
----------------------------------|----------------------------------|
----------------------------------|----------------------------------|
----------------------------------|----------------------------------|
----------------------------------|----------------------------------|

WOW that was long!!!! hope it works out for you!
Questions/Comments email me @ tintinvox@gmail.com
Regards from Argentina!

Tintinvox
Suggest correction new What's this?
You can suggest a correction to this tab. Community and Mods will review your correction and vote to approve or reject it.
comments
print report bad tab
1 comment total.
0 reply
GabrielMoore 24 wrote on April 16 2014, 06:15 pm

Marvelous tab bro!!! Definitely a 5 star tab c:

guest
You may want to rate the tab now too:
select rating
Please do not post tabs as comments. Select "correction" instead!