Oops, an error
Loading. Please wait.

Even The Losers tab

version 2
version 2

Whole song

Interactive

133 views 1 this week
no commentswrite comment
1 2 3 4 5
3 more votes to show rating
add to favorites
×
Save as Personal and add changes to this tab that will be seen only by you. Learn more ›
×
You can save this tab as Personal to edit and correct it or add notes. All changes will be seen only by you. Learn more »
launch autoscroll
font size
0
reset
how to read this tab
guitar tuner
edit
Autoscroll
slow
fast
+/-
esc
set tempo
stop
Author
Difficulty
EVEN THE LOSERS

As recorded by Tom Petty & The Heartbreakers
(From the 1979 Album DAMN THE TORPEDOES)

Words and Music by Tom Petty

Transcribed by Slowhand


          A5                  A5/E
      x 0 2 2 x x          0 0 2 2 x x


Gtr I (E A D G B E) - 'Electric Guitar 1'
Gtr II (E A D G B E) - 'Electric Guitar 2'
Gtr III (E A D G B E) - 'Electric Guitar 3'
Gtr IV (E A D G B E) - 'Electric Guitar 4'


 Intro
  Q=128
             A5
 4/4
  Gtr III (El. Gtr. w/ light dist.)
  W          W                   W
             |                   |
             /                   /

  Gtr I (El. Gtr. w/ light dist.)
  W          E E E E +Q    E E   E E E E +Q    E E
|----------|-----0---------0---|-------------------|
|----------|---2-------------2-|-----2---------2---|
|----------|-2-----0-(0)-------|---2-------------2-|
|----------|-------------------|-4-----2-(2)-------|
|----------|-------------------|-------------------|
|----------|-------------------|-------------------|
|
| Gtr II (El. Gtr. w/ light dist.)
|            PM-------------------------------------
| W          E E E E +E  E E E   E E E E  E  E E E
|----------|-------------------|-------------------|
|----------|-------------------|-------------------|
|----------|-------------------|-------------------|
|----------|-------------------|-------------------|
|----------|-0-0-0-0-(0)-0-0-0-|-0-0-0-0--0--0-0-0-|
|----------|-------------------|-------------------|


                      A5/E
  W                   H        Q    E E
  |                   |        |    | |
  /                   /        /    / /

  E E E E +Q    E E   E E E E +H
|-----0---------0---|--------------------||
|---2-------------2-|-----2--------------||
|-2-----0-(0)-------|---2----------------||
|-------------------|-4-----2-(2)--------||
|-------------------|--------------------||
|-------------------|--------------------||
|
|-------------------------------------|
| E E E E  E  E E E   E E E E  E  E E E
|-------------------|--------------------||
|-------------------|--------------------||
|-------------------|--------------------||
|-------------------|--------------------||
|-0-0-0-0--0--0-0-0-|-0-0-0-0--0--0-0-0--||
|-------------------|--------------------||


   1st & 2nd Verses
    D    A          G    A
    Gtrs I, II
    Q.   E +H       Q.   E +H       Q.   E +H        Q.     E +H
||--2-------------|-3-------------|---------------|------------------|
||o-3----2-(2)----|-3----2-(2)----|-2----2-(2)----|--2------2-(2)----|
||--2----2-(2)----|-0----2-(2)----|-2----2-(2)----|--2------2-(2)----|
||--0----2-(2)----|-0----2-(2)----|-2----2-(2)----|--2------2-(2)----|
||o------0-(0)----|-2----0-(0)----|-0----0-(0)----|--0------0-(0)----|
||----------------|-3-------------|---------------|------------------|
|
|   Gtr IV (El. Gtr. w/ dist.)
|   W               W               W                E  E E E +H
||----------------|---------------|---------------|-/5--5---5-(5)----|
||o---------------|---------------|---------------|-/5--5-7-5-(5)----|
||----------------|---------------|---------------|------------------|
||----------------|---------------|---------------|------------------|
||o---------------|---------------|---------------|------------------|
||----------------|---------------|---------------|------------------|


  D    A          G
  Q.   E +H       Q.   E +H       Q.   E +H       Q.    E +H
|-2-------------|-3----3-(3)----|-3----3-(3)----|-3-----3-(3)--------|
|-3----2-(2)----|-3----3-(3)----|-3----3-(3)----|-3-----3-(3)--------|
|-2----2-(2)----|-0----0-(0)----|-0----0-(0)----|-0-----0-(0)--------|
|-0----2-(2)----|-0----0-(0)----|-0----0-(0)----|-0-----0-(0)--------|
|------0-(0)----|-2----2-(2)----|-2----2-(2)----|-2-----2-(2)--------|
|---------------|-3----3-(3)----|-3----3-(3)----|-3-----3-(3)--------|
|
|                                                              ~~~
| W               W               W               E E E E +E  +Q.
|---------------|---------------|---------------|--------------------|
|---------------|---------------|---------------|--------------------|
|---------------|---------------|---------------|-7p6----------------|
|---------------|---------------|---------------|-----9-9-(9)-(9)----|
|---------------|---------------|---------------|--------------------|
|---------------|---------------|---------------|--------------------|


  D     A          G       D               DsuD4
                  2/4     4/4
  Q.    E +H       Q  Q    Q.   E +H        E  Q   E  +H
|-2--------------|-3--3--|-2----2-(2)----|--3p=2---2--(2)----|
|-3-----2-(2)----|-3--3--|-3----3-(3)----|--3-(3)--3--(3)----|
|-2-----2-(2)----|-0--0--|-2----2-(2)----|--2-(2)--2--(2)----|
|-0-----2-(2)----|-0--0--|-0----0-(0)----|--0-(0)--0--(0)----|
|-------0-(0)----|-2--2--|---------------|-------------------|
|----------------|-3--3--|---------------|-------------------|
|
| ~~                                           ~~~~~~~~~~~
| Q   Q    H       W       W                E  Q.     +H
|----------------|-------|---------------|-------------------|
|----------------|-------|---------------|-------------------|
|----------------|-------|---------------|-12s14-----(14)----|
|-7--------------|-------|---------------|-------------------|
|----------------|-------|---------------|-------------------|
|----------------|-------|---------------|-------------------|


                  1.                        2.
       A           Csus2
  Q.   E +Q.   E   W          +W             W          +H     Q  E E
|-2----0-(0)-----|-3--------|-(3)---------||-3--------|-(3)----3--3-3---||
|-3----2-(2)-----|-3--------|-(3)--------o||-3--------|-(3)----3--3-3---||
|-2----2-(2)-----|-0--------|-(0)---------||-0--------|-(0)----0--0-0---||
|-0----2-(2)-----|-x--------|-(x)---------||-x--------|-(x)----x--x-x---||
|------0-(0)-----|-3--------|-(3)--------o||-3--------|-(3)----3--3-3---||
|----------------|----------|-------------||----------|-----------------||


 Chorus
  $
  D    A          G               D    A          G
  Q.   E +H       Q.   E +H       Q.   E +H       Q.   E +H
|-2-------------|-3----3-(3)----|-2-------------|-3----3-(3)----|
|-3----2-(2)----|-3----3-(3)----|-3----2-(2)----|-3----3-(3)----|
|-2----2-(2)----|-0----0-(0)----|-2----2-(2)----|-0----0-(0)----|
|-0----2-(2)----|-0----0-(0)----|-0----2-(2)----|-0----0-(0)----|
|------0-(0)----|-2----2-(2)----|------0-(0)----|-2----2-(2)----|
|---------------|-3----3-(3)----|---------------|-3----3-(3)----|


                                          To Coda
  D    A          G
  Q.   E +H       Q.   E +H       W          +W
|-2-------------|-3----3-(3)----|-3--------|-(3)-----|
|-3----2-(2)----|-3----3-(3)----|-3--------|-(3)-----|
|-2----2-(2)----|-0----0-(0)----|-0--------|-(0)-----|
|-0----2-(2)----|-0----0-(0)----|-0--------|-(0)-----|
|------0-(0)----|-2----2-(2)----|-2--------|-(2)-----|
|---------------|-3----3-(3)----|-3--------|-(3)-----|


                                 Guitar Solo
  A                               D      A             G
  Gtrs I, II
  W          +W                   Q.     E +Q.     E   Q.       E +H
|-0--------|-(0)---------------||-2------0-(0)-------|-3--------3-(3)-------|
|-2--------|-(2)---------------||-3------2-(2)-------|-3--------3-(3)-------|
|-2--------|-(2)---------------||-2------2-(2)-------|-0--------0-(0)-------|
|-2--------|-(2)---------------||-0------2-(2)-------|-0--------0-(0)-------|
|-0--------|-(0)---------------||--------0-(0)-------|-2--------2-(2)-------|
|----------|-------------------||--------------------|-3--------3-(3)-------|
|
| Gtr IV
| W           E  E E E E E E E    E  E E E  E  E E E   E  E E a E  E  E E E
|----------|--0--0-----3-3-3-3-||-3--5-5----5--5-5---|-5--3-3-3s5--5--5-5-5-|
|----------|--0--2-3s5-3-2-3-3-||-3--3-3s5--5--5-5-7-|-5--3-3-3s5--5--5-5-5-|
|----------|-------------------||--------------------|----------------------|
|----------|-------------------||--------------------|----------------------|
|----------|-------------------||--------------------|----------------------|
|----------|-------------------||--------------------|----------------------|


  Q.    E +H          Q.      E +H
|-3-----3-(3)-------|-3-------3-(3)--------|
|-3-----3-(3)-------|-3-------3-(3)--------|
|-0-----0-(0)-------|-0-------0-(0)--------|
|-0-----0-(0)-------|-0-------0-(0)--------|
|-2-----2-(2)-------|-2-------2-(2)--------|
|-3-----3-(3)-------|-3-------3-(3)--------|
|
| Q   E E  E  E E E   E   E E E +E  E E  E
|-5---5-5--5--5-5-5-|-----5-5-5-(5)-5-5S10-|
|-5---5-5--5--5-5-5-|-----5-5-5-(5)-5-5S10-|
|-------------------|-7b9------------------|
|-------------------|----------------------|
|-------------------|----------------------|
|-------------------|----------------------|


  D         A                 G
   Q.        E +H              Q.          E    +H
|--2---------0-(0)----------|--3-----------3----(3)--------------|
|--3---------2-(2)----------|--3-----------3----(3)--------------|
|--2---------2-(2)----------|--0-----------0----(0)--------------|
|--0---------2-(2)----------|--0-----------0----(0)--------------|
|------------0-(0)----------|--2-----------2----(2)--------------|
|---------------------------|--3-----------3----(3)--------------|
|
|  E   E  E  E  E   E  E  E    E     E  E  E     E   E  E     E
|-10--10-10-12-12--12-12-10-|-------10-10-------10--10-------10--|
|-10--10-10-10-10--10-10-10-|-------10-10-------10--10-------10--|
|-------------------0-------|-12b14-------12b14--------12b14-----|
|---------------------------|------------------------------------|
|---------------------------|------------------------------------|
|---------------------------|------------------------------------|


   Q.          E    +H                 Q.          E    +H
|--3-----------3----(3)-------------|--3-----------3----(3)-------------|
|--3-----------3----(3)-------------|--3-----------3----(3)-------------|
|--0-----------0----(0)-------------|--0-----------0----(0)-------------|
|--0-----------0----(0)-------------|--0-----------0----(0)-------------|
|--2-----------2----(2)-------------|--2-----------2----(2)-------------|
|--3-----------3----(3)-------------|--3-----------3----(3)-------------|
|
|  E     E  E  E     E   E  E     E    E     E  E  E     E   E  E     E
|-------10-10-------10--10-------10-|-------10-10-------10--10-------10-|
|-------10-10-------10--10-------10-|-------10-10-------10--10-------10-|
|-12b14-------12b14--------12b14----|-12b14-------12b14--------12b14----|
|-----------------------------------|-----------------------------------|
|-----------------------------------|-----------------------------------|
|-----------------------------------|-----------------------------------|


  D           A                       G
                                     2/4
   Q.          E    +Q.           E    Q.        E
|--2-----------0----(0)-------------|--3---------3--|
|--3-----------2----(2)-------------|--3---------3--|
|--2-----------2----(2)-------------|--0---------0--|
|--0-----------2----(2)-------------|--0---------0--|
|--------------0----(0)-------------|--2---------2--|
|-----------------------------------|--3---------3--|
|
|  E     E  E  E     E   E  E     E    E   E  E  E
|-------10-10-------10--10-------10-|-10--12-10-10--|
|-------10-10-------10--10-------10-|-10--10-10-10--|
|-12b14-------12b14--------12b14----|---------------|
|-----------------------------------|---------------|
|-----------------------------------|---------------|
|-----------------------------------|---------------|


  D
 4/4
   Q.          E +H              Q.             E  +H
|--2-----------2-(2)----------|--2--------------2--(2)---------------------|
|--3-----------3-(3)----------|--3--------------3--(3)---------------------|
|--2-----------2-(2)----------|--2--------------2--(2)---------------------|
|--0-----------0-(0)----------|--0--------------0--(0)---------------------|
|-----------------------------|--------------------------------------------|
|-----------------------------|--------------------------------------------|
|
|  E     E  E  E  E   E  E  E    Q      E      +E   E     E     E     E
|-------10-10-10-10--10-10-10-|-10-----10-----(10)-10----10----10----10----|
|-------10-10-10-10--10-10-10-|-10-----10-----(10)-10----10----10----10----|
|-12b14-----------------------|-12b14--12pb14r(12)-12b14-12b14-12b14-12b14-|
|-----------------------------|--------------------------------------------|
|-----------------------------|--------------------------------------------|
|-----------------------------|--------------------------------------------|


                    A
   Q.                E    +H
|--2-----------------0----(0)--------------|
|--3-----------------2----(2)--------------|
|--2-----------------2----(2)--------------|
|--0-----------------2----(2)--------------|
|--------------------0----(0)--------------|
|------------------------------------------|
|
|  E     E     E     E     E     E     E E
|-10----10----10----10----10----10----12---|
|-10----10----10----10----10----10----10---|
|-12b14-12b14-12b14-12b14-12b14-12b14------|
|------------------------------------------|
|------------------------------------------|
|------------------------------------------|


                            Bridge
  Csus2                      A    G/A        A    G/A
   W           +W            Q.   E +H       Q.   E +H
|--3--------|--(3)--------||---------------|---------------|
|--3--------|--(3)--------||-2----3-(3)----|-2----3-(3)----|
|--0--------|--(0)--------||-2----4-(4)----|-2----4-(4)----|
|--x--------|--(x)--------||-2----5-(5)----|-2----5-(5)----|
|--3--------|--(3)--------||-0----0-(0)----|-0----0-(0)----|
|-----------|-------------||---------------|---------------|
|
|  ~~~~~~~~~~~~~~~~
|  W           +W            W               W
|-----------|-------------||---------------|---------------|
|-----------|-------------||---------------|---------------|
|-12--------|-(12)--------||---------------|---------------|
|-----------|-------------||---------------|---------------|
|-----------|-------------||---------------|---------------|
|-----------|-------------||---------------|---------------|


  A    G/A        A    G/A        A    G/A        A    G/A
  Q.   E +H       Q.   E +H       Q.   E +H       Q.   E +H
|---------------|---------------|---------------|---------------|
|-2----3-(3)----|-2----3-(3)----|-2----3-(3)----|-2----3-(3)----|
|-2----4-(4)----|-2----4-(4)----|-2----4-(4)----|-2----4-(4)----|
|-2----5-(5)----|-2----5-(5)----|-2----5-(5)----|-2----5-(5)----|
|-0----0-(0)----|-0----0-(0)----|-0----0-(0)----|-0----0-(0)----|
|---------------|---------------|---------------|---------------|


                                             D.S. al Coda
  A    G/A        G
  Q.   E +H       W          +W           W          +W
|---------------|-3--------|-(3)--------|-3--------|-(3)-----||
|-2----3-(3)----|-3--------|-(3)--------|-3--------|-(3)-----||
|-2----4-(4)----|-0--------|-(0)--------|-0--------|-(0)-----||
|-2----5-(5)----|-0--------|-(0)--------|-0--------|-(0)-----||
|-0----0-(0)----|-2--------|-(2)--------|-2--------|-(2)-----||
|---------------|-3--------|-(3)--------|-3--------|-(3)-----||


  &
  A                       D    A          G
  Gtrs I, II
  W          +W           Q.   E +H       Q.   E +H
|-0--------|-(0)--------|-2-------------|-3----3-(3)----|
|-2--------|-(2)--------|-3----2-(2)----|-3----3-(3)----|
|-2--------|-(2)--------|-2----2-(2)----|-0----0-(0)----|
|-2--------|-(2)--------|-0----2-(2)----|-0----0-(0)----|
|-0--------|-(0)--------|------0-(0)----|-2----2-(2)----|
|----------|------------|---------------|-3----3-(3)----|


  D    A          G               D    A          G
  Q.   E +H       Q.   E +H       Q.   E +H       Q.   E +H
|-2-------------|-3----3-(3)----|-2-------------|-3----3-(3)----|
|-3----2-(2)----|-3----3-(3)----|-3----2-(2)----|-3----3-(3)----|
|-2----2-(2)----|-0----0-(0)----|-2----2-(2)----|-0----0-(0)----|
|-0----2-(2)----|-0----0-(0)----|-0----2-(2)----|-0----0-(0)----|
|------0-(0)----|-2----2-(2)----|------0-(0)----|-2----2-(2)----|
|---------------|-3----3-(3)----|---------------|-3----3-(3)----|


                          A
  W          +W           W          +W
|-3--------|-(3)--------|-0--------|-(0)----||
|-3--------|-(3)--------|-2--------|-(2)----||
|-0--------|-(0)--------|-2--------|-(2)----||
|-0--------|-(0)--------|-2--------|-(2)----||
|-2--------|-(2)--------|-0--------|-(0)----||
|-3--------|-(3)--------|----------|--------||


 Outro
  D         A                G
  Gtrs I, II
   Q.        E +H             Q.        E +H
|--2-----------------------|--3---------3-(3)----------|
|--3---------2-(2)---------|--3---------3-(3)----------|
|--2---------2-(2)---------|--0---------0-(0)----------|
|--0---------2-(2)---------|--0---------0-(0)----------|
|------------0-(0)---------|--2---------2-(2)----------|
|--------------------------|--3---------3-(3)----------|
|
| Gtr IV
|  E   E  E  E  E   E  E E    E   E  E  E  E   E  E  E
|-10--10-10-10-10--10-10---|-10--10-10-10-10--10-10-10-|
|-10--10-10-10-10--10-10---|-10--10-10-10-10--10-10-10-|
|--------------------------|---------------------------|
|--------------------------|---------------------------|
|--------------------------|---------------------------|
|--------------------------|---------------------------|


  D         A               G
   Q.        E +H            Q.        E +H
|--2----------------------|--3---------3-(3)----------|
|--3---------2-(2)--------|--3---------3-(3)----------|
|--2---------2-(2)--------|--0---------0-(0)----------|
|--0---------2-(2)--------|--0---------0-(0)----------|
|------------0-(0)--------|--2---------2-(2)----------|
|-------------------------|--3---------3-(3)----------|
|
|  E   E  E  E  E   E  Q     E   E  E  E  E   E  E E
|-10--10-10-10-10--10-10--|-10--10-10-10-10--10-10----|
|-10--10-10-10-10--10-10--|-10--10-10-10-10--10-10----|
|-------------------------|---------------------------|
|-------------------------|---------------------------|
|-------------------------|---------------------------|
|-------------------------|---------------------------|


  D         A                 G
   Q.        E +H              Q.        E +H
|--2------------------------|--3---------3-(3)---------|
|--3---------2-(2)----------|--3---------3-(3)---------|
|--2---------2-(2)----------|--0---------0-(0)---------|
|--0---------2-(2)----------|--0---------0-(0)---------|
|------------0-(0)----------|--2---------2-(2)---------|
|---------------------------|--3---------3-(3)---------|
|
|  E   E  E  E  E   E  E  E    E   E  E  E  E   E  E E
|-10--10-10-10-10--10-10-10-|-10--10-10-10-10--10-10---|
|-10--10-10-10-10--10-10-10-|-10--10-10-10-10--10-10---|
|---------------------------|--------------------------|
|---------------------------|--------------------------|
|---------------------------|--------------------------|
|---------------------------|--------------------------|


  D         A                 G
   Q.        E +H              Q.          E +H
|--2------------------------|--3-----------3-(3)--------------|
|--3---------2-(2)----------|--3-----------3-(3)--------------|
|--2---------2-(2)----------|--0-----------0-(0)--------------|
|--0---------2-(2)----------|--0-----------0-(0)--------------|
|------------0-(0)----------|--2-----------2-(2)--------------|
|---------------------------|--3-----------3-(3)--------------|
|
|  E   E  E  E  E   E  E  E    E     E  E  E  E   E  E     E
|-10--10-10-10-10--10-10-10-|-------10-10-10-10--10-------10--|
|-10--10-10-10-10--10-10-10-|-------10-10-10-10--10-------10--|
|---------------------------|-12b14-----------------12b14-----|
|---------------------------|---------------------------------|
|---------------------------|---------------------------------|
|---------------------------|---------------------------------|


  D           A                       G
   Q.          E    +H                 Q.          E +H
|--2--------------------------------|--3-----------3-(3)----------|
|--3-----------2----(2)-------------|--3-----------3-(3)----------|
|--2-----------2----(2)-------------|--0-----------0-(0)----------|
|--0-----------2----(2)-------------|--0-----------0-(0)----------|
|--------------0----(0)-------------|--2-----------2-(2)----------|
|-----------------------------------|--3-----------3-(3)----------|
|
|  E     E  E  E     E   E  E     E    E     E  E  E  E   E  E  E
|-------10-10-------10--10-------10-|-------10-10-10-10--10-10-10-|
|-------10-10-------10--10-------10-|-------10-10-10-10--10-10-10-|
|-12b14-------12b14--------12b14----|-12b14-----------------------|
|-----------------------------------|-----------------------------|
|-----------------------------------|-----------------------------|
|-----------------------------------|-----------------------------|


  D             A                 G
   Q.            E +H              Q.       E +H
|--2----------------------------|--3--------3-(3)--------|
|--3-------------2-(2)----------|--3--------3-(3)--------|
|--2-------------2-(2)----------|--0--------0-(0)--------|
|--0-------------2-(2)----------|--0--------0-(0)--------|
|----------------0-(0)----------|--2--------2-(2)--------|
|-------------------------------|--3--------3-(3)--------|
|
|                                         ~~
|  E     +E   E  E  E   E  E  E    E   E  Q    E  E  Q
|------------10-10-10--10-10-10-|-10--10-----------------|
|------------10-10-10--10-10-10-|-10--10-12---12p10------|
|-12b14r(12)--------------------|-------------------12---|
|-------------------------------|------------------------|
|-------------------------------|------------------------|
|-------------------------------|------------------------|


  D           A                       G
   Q.          E    +H                 Q.           E +H
|--2--------------------------------|--3------------3-(3)------------|
|--3-----------2----(2)-------------|--3------------3-(3)------------|
|--2-----------2----(2)-------------|--0------------0-(0)------------|
|--0-----------2----(2)-------------|--0------------0-(0)------------|
|--------------0----(0)-------------|--2------------2-(2)------------|
|-----------------------------------|--3------------3-(3)------------|
|
|  E     E  E  E     E   E  E     E    E   E     E  E  E     E  E  E
|-------10-10-------10--10-------10-|-10--------10-10-------10-10-10-|
|-------10-10-------10--10-------10-|-10--------10-10-------10-10-10-|
|-12b14-------12b14--------12b14----|-----12b14-------12b14----------|
|-----------------------------------|--------------------------------|
|-----------------------------------|--------------------------------|
|-----------------------------------|--------------------------------|


  D           A                 G
   Q.          E +H              Q.        E +H
|--2--------------------------|--3---------3-(3)-----------|
|--3-----------2-(2)----------|--3---------3-(3)-----------|
|--2-----------2-(2)----------|--0---------0-(0)-----------|
|--0-----------2-(2)----------|--0---------0-(0)-----------|
|--------------0-(0)----------|--2---------2-(2)-----------|
|-----------------------------|--3---------3-(3)-----------|
|
|  E     E  E  E  E   E  E  E    E   E  E  E  E   E  E  E
|-------10-10-10-10--10-10-10-|-10--10-10-12-12--10-12-10--|
|-------10-10-10-10--10-10-10-|-10--10-10-10-10--10-10-10--|
|-12b14-----------------------|----------------------------|
|-----------------------------|----------------------------|
|-----------------------------|----------------------------|
|-----------------------------|----------------------------|


  D         A                 G
   Q.        E +H              Q.        E +H
|--2------------------------|--3---------3-(3)----------|
|--3---------2-(2)----------|--3---------3-(3)----------|
|--2---------2-(2)----------|--0---------0-(0)----------|
|--0---------2-(2)----------|--0---------0-(0)----------|
|------------0-(0)----------|--2---------2-(2)----------|
|---------------------------|--3---------3-(3)----------|
|
|  E   E  E  E  E   E  E  E    E   E  E  E  E   E  E  E
|-10--10-10-12-12--12-12-10-|-10--10-10-10-10--10-10-10-|
|-10--10-10-10-10--10-10-10-|-10--10-10-10-10--10-10-10-|
|---------------------------|---------------------------|
|---------------------------|---------------------------|
|---------------------------|---------------------------|
|---------------------------|---------------------------|


  D         A                 G
   Q.        E +H              Q.       E +H
|--2------------------------|--3--------3-(3)-----------|
|--3---------2-(2)----------|--3--------3-(3)-----------|
|--2---------2-(2)----------|--0--------0-(0)-----------|
|--0---------2-(2)----------|--0--------0-(0)-----------|
|------------0-(0)----------|--2--------2-(2)-----------|
|---------------------------|--3--------3-(3)-----------|
|
|                                     ~~
|  E   E  E  E  E   E  E  E    E   E  Q    E   E  E  E
|-10--10-10-10-10--10-10-10-|-10--10--------------------|
|-10--10-10-10-10--10-10-10-|-10--10-12---10--10----10--|
|---------------------------|--------------------12-----|
|---------------------------|---------------------------|
|---------------------------|---------------------------|
|---------------------------|---------------------------|


  D         A                 G
   Q.        E +H              Q.        E +H
|--2------------------------|--3---------3-(3)----------|
|--3---------2-(2)----------|--3---------3-(3)----------|
|--2---------2-(2)----------|--0---------0-(0)----------|
|--0---------2-(2)----------|--0---------0-(0)----------|
|------------0-(0)----------|--2---------2-(2)----------|
|---------------------------|--3---------3-(3)----------|
|
|                                               ~~
|  E   E  E  E  E   E  E  E    E   E  E  E  E   E  E  E
|-10--10-10-10-10--10-10-10-|-10--10-10-10--------------|
|-10--10-10-10-10--10-10-10-|-10--10-10-10-10--12-10-12-|
|---------------------------|---------------------------|
|---------------------------|---------------------------|
|---------------------------|---------------------------|
|---------------------------|---------------------------|


  D         A                 G
   Q.        E +H              Q.        E +H
|--2------------------------|--3---------3-(3)-----------|
|--3---------2-(2)----------|--3---------3-(3)-----------|
|--2---------2-(2)----------|--0---------0-(0)-----------|
|--0---------2-(2)----------|--0---------0-(0)-----------|
|------------0-(0)----------|--2---------2-(2)-----------|
|---------------------------|--3---------3-(3)-----------|
|
|  E   E  E  E  E   E  E  E    E   E  E  E  E   E  E  E
|-10--10-10-10-10--10-10-10-|-10--10-10-10-10--10-10-10--|
|-10--10-10-10-10--10-10-10-|-10--10-10-10-10--10-10-10--|
|---------------------------|----------------------------|
|---------------------------|----------------------------|
|---------------------------|----------------------------|
|---------------------------|----------------------------|


  D         A
   Q.        E +H
|--2------------------------|
|--3---------2-(2)----------|
|--2---------2-(2)----------|
|--0---------2-(2)----------|
|------------0-(0)----------|
|---------------------------|
|
|  E   E  E  E  E   E  E  E
|-10--10-10-10-10--10-10----|
|-10--10-10-10-10--10-10-12-|
|---------------------------|
|---------------------------|
|---------------------------|
|---------------------------|


  G                              D         A
   Q.           E +H              Q.        E +H
|--3------------3-(3)----------|--2------------------------|
|--3------------3-(3)----------|--3---------2-(2)----------|
|--0------------0-(0)----------|--2---------2-(2)----------|
|--0------------0-(0)----------|--0---------2-(2)----------|
|--2------------2-(2)----------|------------0-(0)----------|
|--3------------3-(3)----------|---------------------------|
|
|  E   E  E     E  E   E  E  E    E   E  E  E  E   E  E  E
|-10--10-------10-10--10-10-10-|-10--10-10-10-10--10-10-10-|
|-10--10-------10-10--10-10-10-|-10--10-10-10-10--10-10-10-|
|--------12b14-----------------|---------------------------|
|------------------------------|---------------------------|
|------------------------------|---------------------------|
|------------------------------|---------------------------|


  G
   Q.          E +H
|--3-----------3-(3)----------|
|--3-----------3-(3)----------|
|--0-----------0-(0)----------|
|--0-----------0-(0)----------|
|--2-----------2-(2)----------|
|--3-----------3-(3)----------|
|
|  E   E  Q       E   E  E  E
|-10--10----------------------|
|-10--10---------10--10----10-|
|--------12b14----------12----|
|-----------------------------|
|-----------------------------|
|-----------------------------|


  D         A                 G
   Q.        E +H              Q.        E +H
|--2------------------------|--3---------3-(3)----------*|
|--3---------2-(2)----------|--3---------3-(3)----------*|
|--2---------2-(2)----------|--0---------0-(0)----------*|
|--0---------2-(2)----------|--0---------0-(0)----------*|
|------------0-(0)----------|--2---------2-(2)----------*|
|---------------------------|--3---------3-(3)----------*|
|
|  E   E  E  E  E   E  E  E    E   E  E  E  E   E  E  E
|-10--10-10-10-10--10-10-10-|-10--10-10-10-10--10-10-10-*|
|-10--10-10-10-10--10-10-10-|-10--10-10-10-10--10-10-10-*|
|---------------------------|---------------------------*|
|---------------------------|---------------------------*|
|---------------------------|---------------------------*|
|---------------------------|---------------------------*|


Duration Legend
---------------
W - whole; H - half; Q - quarter; E - 8th; S - 16th; T - 32nd; X - 64th; a - acciaccatura
+ - note tied to previous; . - note dotted; .. - note double dotted
Uncapitalized letters represent notes that are staccato (1/2 duration)
Irregular groupings are notated above the duration line
Duration letters will always appear directly above the note/fret number it represents the
duration for.  Duration letters with no fret number below them represent rests.  Multi-
bar rests are notated in the form Wxn, where n is the number of bars to rest for.  Low
melody durations appear below the staff

Tablature Legend
----------------
 h   - hammer-on
 p   - pull-off
 b   - bend
 pb  - pre-bend
 r   - bend release (if no number after the r, then release immediately)
 /\  - slide into or out of (from/to "nowhere")
 s   - legato slide
 S   - shift slide
  - natural harmonic
[n]  - artificial harmonic
n(n) - tapped harmonic
 ~   - vibrato
 tr  - trill
 T   - tap
 TP  - trem. picking
 PM  - palm muting
\n/  - tremolo bar dip; n = amount to dip
 \n  - tremolo bar down
 n/  - tremolo bar up
/n\  - tremolo bar inverted dip
 =   - hold bend; also acts as connecting device for hammers/pulls
 <>  - volume swell (louder/softer)
 x   - on rhythm slash represents muted slash
 o   - on rhythm slash represents single note slash

Misc Legend
-----------
 |  - bar
||  - double bar
||o - repeat start
o|| - repeat end
*|  - double bar (ending)
 :  - bar (freetime)
 $  - Segno
 &  - Coda
Tempo markers -  = BPM(8/16=s8/s16), where s8 = swing 8ths, s16 = swing 16ths

            
            
Suggest correction
Creating personal tab
Creating personal tab
You can edit any tab online and save it as your Personal.

You can edit, replace or remove any tab part or add personal notes – all changes will be seen only by you.

Personal tabs can be accessed anytime from any device, even offline.
Learn more »
Give kudos to tab author, rate the tab!
1 2 3 4 5
comments
print report bad tab
guest
You may want to rate the tab now too:
select rating
Wanna post a correction for this tab? Suggest correction