Oops, an error
Loading. Please wait.

Free Fallin Tab

version 5
version 5
172,424 views 39 this week
18 commentsread comments
1 2 3 4 5
accurate
x 31
add to favorites
launch autoscroll
font size
0
reset
how to read this tab
guitar tuner
Autoscroll
slow
fast
+/-
esc
set tempo
stop
Help us to improve Ultimate-Guitar.com Take our survey!
×
Author
Free Falling by:Tom Petty & the Heartbreakers
 

Tab By: Aaron Meredith


Guitar 1- Standard tuning (CAPO at 3rd FRET)
Guitar 2- Standard tuning
Guitar 3- Standard tuning

~ = let ring
/ = slide up
\ = slide down



Intro: Guitar 1 
e|--|---2~----3~------3--2--0~------| 
B|--c---3~----3~------3--3--3~------|  
G|--a---2~----2~------2--2--2~------|x2 
D|--p---0~----0~------0--0--2~------| 
A|--o-------------------------------| 
E|--|-------------------------------| 
 
Intro: Guitar 2 
e|----1~----1~------1--1--1~------| 
B|----1~----1~------1--1--1~------|  
G|----2~----3~------3--2--0~------|x2 
D|----3~----3~------3--3--3~------| 
A|--------------------------------| 
E|--------------------------------|


Verse: Guitar 1 
e|--|---2~----3~------3--2--0~------| 
B|--c---3~----3~------3--3--3~------|  
G|--a---2~----2~------2--2--2~------|x4 
D|--p---0~----0~------0--0--2~------| 
A|--o-------------------------------| 
E|--|-------------------------------| 

Verse: Guitar 2 (first verse quietly) 
e|1--1-1-1--1---1--1---1--1-1-|--1--1--1-1--1---1-1--1--1-1---| 
B|1--1-1-1--1---1--1---1--1-1-|--1--1--1-1--1---1-1--1--1-1---| 
G|2--2-2-2--3---3--3---3--3-3-|--3--2--2-2--0---0-0--0--0-0---|x4 
D|3--3-3-3--3---3--3---3--3-3-|--3--3--3-3--2---2-2--2--2-2---| 
A|----------------------------|-------------------------------| 
E|----------------------------|-------------------------------| 
 
REPEAT VERSE: x1 (no vocals)


REPEAT VERSE: x4


Chorus: Guitar 1
e|--|---2--2-2-2--3--3-3--3--3-3-3--2---0--0-0--0--0-0-----| 
B|--c---3--3-3-3--3--3-3--3--3-3-3--3---3--3-3--3--3-3-----|  
G|--a---2--2-2-2--2--2-2--2--2-2-2--2---2--2-2--2--2-2-----|x4 
D|--p---0--0-0-0--0--0-0--0--0-0-0--0---2--2-2--2--2-2-----| 
A|--o------------------------------------------------------| 
E|--|------------------------------------------------------| 

Chorus: Guitar 2
e|1--1-1-1--1---1--1---1--1-1-|--1--1--1-1--1---1-1--1--1-1---| 
B|1--1-1-1--1---1--1---1--1-1-|--1--1--1-1--1---1-1--1--1-1---| 
G|2--2-2-2--3---3--3---3--3-3-|--3--2--2-2--0---0-0--0--0-0---|x4 
D|3--3-3-3--3---3--3---3--3-3-|--3--3--3-3--2---2-2--2--2-2---| 
A|----------------------------|-------------------------------| 
E|----------------------------|-------------------------------|


REPEAT VERSE: x4


REPEAT CHORUS: x4


REPEAT CHORUS: x4 (with guitar part)

Guitar part: Guitar 3   
e|--"Free fallin I'm a.....Free fallin I'm a"---------| 
B|----------------------------------------------------| 
G|---------------------------2~--2-0~-----0-----------| 
D|--------------------------------------3---3~--------| 
A|----------------------------------------------------| 
E|----------------------------------------------------| 


REPEAT VERSE: x4


REPEAT CHORUS: x4


Rhythm Solo: Guitar 3 (plays into last chorus x2) 
e|-------------------------------------------------------| 
B|-------------------------------------------------------| 
G|-------------------------------------------------------|x4 
D|-------------------------------------------------------| 
A|---3--3--3-/8--8--8--8--8--8-\3--3-/10--10--10--10--10-| 
E|---1--1--1-/6--6--6--6--6--6-\1--1-/-8---8---8---8---8-| 
 
 
 REPEAT CHORUS & FADE:
Suggest correction
comments
print report bad tab
18 comments total. Showing first comments.
0 reply
folk_rocknroll 80 wrote on April 28 2005, 12:00 am

nice tab

0 reply
aron444 708 wrote on August 12 2005, 12:00 am

Ignore the rating if it remains low. This is right. Just make sure you read it closely to see about Capo placement and how the tab numbers are relitive to Capo. This tab will help you out.

-1 reply
ineedagibson 10 wrote on January 30 2006, 02:36 pm

the last chord in the intro is wrong, and its one octave too low.

guest
You may want to rate the tab now too:
select rating
Wanna post a correction for this tab? Suggest correction