Oops, an error
Loading. Please wait.

Free Fallin Tab

version 6
version 6
21,752 views 1 this week
7 commentsread comments
1 2 3 4 5
x 12
add to favorites
launch autoscroll
font size
0
reset
how to read this tab
guitar tuner
Autoscroll
slow
fast
+/-
esc
set tempo
stop
Help us to improve Ultimate-Guitar.com Take our survey!
×
Capo
3rd fret
---------------------------------------------------------------------
        Free Fallin' - Tom Petty (and the Heartbreakers)
---------------------------------------------------------------------

By: Ben Grimes

CAPO III

This is kinda what the rhythm is like:
e|--2---3---3-2-0----------------------------------------------------
B|--3---3---3-3-3----------------------------------------------------
G|--2---2---2-3-2----------------------------------------------------
D|-(0)-(0)-(0-0-0)---------------------------------------------------
A|-------------------------------------------------------------------
E|-------------------------------------------------------------------

(0) = optional note (I think it sounds better)

Repeat these chords through the whole song w/
a few variations in the rhythm - - you will have
to listen to the song to differentiate.

Qhestions - Comments: McBaller236@aol.com
Suggest correction
comments
print report bad tab
7 comments total. Showing first comments.
0 reply
whee527 10 Feb 02, 2003 12:00 AM

e|--2---3---3-2-0----------------
B|--3---3---3-3-3----------------
G|--2---2---2-2-2----------------
D|-(0)-(0)-(0-0-2)---------------
A|-------------------------------
E|-------------------------------

+1 reply
Xx_banx 10 Jul 04, 2004 12:00 AM

holy shit dude!! this must have taken you months to tab out!

+1 reply
shelbycj 16 Feb 06, 2006 02:31 PM

this kinda sounds like the song

--5--6--6--3----
--6--6--6--1----
--5--5--5--0-----
try that and see what it sounds like they wont let me post one for some reason

guest
You may want to rate the tab now too:
select rating
Wanna post a correction for this tab? Suggest correction