Oops, an error
Loading. Please wait.

Free Fallin Tab

version 7
version 7
51,548 views 6 this week
4 commentsread comments
1 2 3 4 5
worth learning
x 6
add to favorites
launch autoscroll
font size
0
reset
how to read this tab
guitar tuner
Tab Pro tools
  • play this tab
  • loop segment
  • change instrument
  • show fretboard
  • metronome
×
Best way to learn
"Free Fallin"
Autoscroll
slow
fast
+/-
esc
set tempo
stop
Band: Tom Petty and The Heartbreakers
Song: Free Fallin

----------------------------Verse---------------------------
e|-----0-0----------0-0-0-----|-----0-0----------0-0-0-----|
B|-----0-0----------0-0-0-----|-----0-0----------0-0-0-----|
G|-----1-2----------2-1-4-----|-----1-2----------2-1-4-----|
D|-----2-2----------2-2-4-----|-----2-2----------2-2-4-----|
A|-----2-0----------0-2-2-----|-----2-0----------0-2-2-----|
E|-----0-0----------0-0-------|-----0-0----------0-0-------|
 
e|--1-1-1-1-1-1--1-1-1-1-1-1--|--1-1-1-1-1-1--1-1-1-1-1-1--|
B|--1-1-1-1-1-1--1-1-1-1-1-1--|--1-1-1-1-1-1--1-1-1-1-1-1--|
G|--2-2-2-2-2-2--3-3-3-3-3-3--|--2-2-2-2-2-2--0-0-0-0-0-0--|
D|--3-3-3-3-3-3--3-3-3-3-3-3--|--3-3-3-3-3-3--3-3-3-3-3-3--|
A|----------------------------|----------------------------|
E|----------------------------|----------------------------|

---------------------------Chorus---------------------------

e|-----0-0----------0-0-0-----|-----0-0----------0-0-0-----|
B|-----0-0----------0-0-0-----|-----0-0----------0-0-0-----|
G|-----1-2----------2-1-4-----|-----1-2----------2-1-4-----|
D|-----2-2----------2-2-4-----|-----2-2----------2-2-4-----|
A|-----2-0----------0-2-2-----|-----2-0----------0-2-2-----|
E|-----0-0----------0-0-------|-----0-0----------0-0-------|
 
e|--1-1-1-1-1-1--1-1-1-1-1-1--|--1-1-1-1-1-1--1-1-1-1-1-1--|
B|--1-1-1-1-1-1--1-1-1-1-1-1--|--1-1-1-1-1-1--1-1-1-1-1-1--|
G|--2-2-2-2-2-2--3-3-3-3-3-3--|--2-2-2-2-2-2--0-0-0-0-0-0--|
D|--3-3-3-3-3-3--3-3-3-3-3-3--|--3-3-3-3-3-3--3-3-3-3-3-3--|
A|----------------------------|----------------------------|
E|----------------------------|----------------------------|

---------------------Bridge-------------------

e|---------------------|---------------------|
B|---------------------|---------------------|
G|---------------------|---------------------|
D|---------------------|---------------------|
A|---------------------|---------------------|
E|--5--5--3---1--3--1--|--5--5--3---1--3--1--|

---------------------Solo---------------------

e|---------------------|---------------------|
B|---------------------|---------------------|
G|---------------------|---------------------|
D|---------------------|---------------------|
A|---------------------|---------------------|
E|--1-1-1-6-6-6-6-6-6--|--1-1-1-8-8-8-8-8-8--|

Notes:
Parentheses mean background vocals
Solo continues throug the first part of the chorus that are played after it
Submitted by Michael Chittenden
comments
print report bad tab
4 comments total. Showing first comments.
+1 reply
Crashman77 wrote on December 17 2006, 06:55 am

wrong

0 reply
dancechippy wrote on August 5 2007, 09:00 pm

No, its right, Its in Capo 3...

0 reply
oaty612 wrote on February 5 2008, 07:19 pm

nope.

I want to post or [tab]
guest
You may want to rate the tab now too:
select rating
Please do not post tabs as comments. Select "correction" instead!