Oops, an error
Loading. Please wait.

Honey Bee chords

version 2
version 2

Whole song

12,478 views 45 this week
1 commentread comment
1 2 3 4 5
x 21
add to favorites
×
Save as Personal and add changes to this tab that will be seen only by you. Learn more ›
×
You can save this tab as Personal to edit and correct it or add notes. All changes will be seen only by you. Learn more »
launch autoscroll
font size
0
reset
transpose
0
reset
display chords
guitar tuner
edit
Autoscroll
slow
fast
+/-
esc
set tempo
stop
Strumming
There is no strumming pattern for this song yet. and get +5 IQ
Honeybee
by Tom Petty
(Edited by UG user Music One)

***************************

| p   Pull-off
| ~   Vibrato and/or vib

***************************

Intro & Outro Parts
Intro       |vib|             |vib|             |vib|                |vib|
e------------------|----------------|------------------|-------------------|
b------------------|----------------|------------------|-------------------|
g------------------|----------------|------------------|-------------------|
d------------------|----------------|------------------|-------------------|  1X Repeat
a-----------3~~~---|----------3~~~--|-----------3~~~---|-------------------|
e--0--3--5------5--|--0--3--5-------|--0--3--5------5--|--0--3p--0---5~~~--|



Verses      |vib|             |vib|              |vib|                |vib|
e------------------|-----------------|------------------|--------------------|
b------------------|-----------------|------------------|--------------------|
g------------------|-----------------|------------------|--------------------|
d------------------|-----------------|------------------|--------------------|  1X Repeat
a-----------3~~~---|----------3~~~---|-----------3~~~---|--------------------|
e--0--3--5------5--|--0--3--5-----5--|--0--3--5------5--|--0--3p--0---5~~~---|



***Format***

Intro Riff | 2x

Verses 2 | 2x

Chorus | 2x

Intro Part Played for Solo | 4x

Verse 3 | 2x

Chorus | 2x

Intro Riff | 4x

Outro Solo | 4x



Verse 1
Come on now, give me some sugar
Give me some sugar, little Honey bee
Don't be afraid now, not gonna hurt you
I wouldn't hurt, my little honey Bee

Verse 2
Don't say a word, bout what were doin
Don't say nothin little honey bee
Don't tell your momma, dont tell your sister
Don't tell your boyfriend, little honey bee


Chorus
A                        C
She like to call me king bee
                          D
She like to buzz round my tree
                 F
I call her honey bee
A              C
I'm a man in a trance
                  D
Im a boy in short pants
                    F
When I see my honey bee
                         G
And Ive got something to say


Verse 3
Look here now, peace in the valley
Peace in the valley with my honey bee
Don't say a word, bout what were doin
Don't say nothin little honey bee

Chorus 2 (same chords)
She give me her monkey hand
And a rambler sedan
I'm the king of Milwaukee
Her Jujubes are so nice
She kissed my third cousin twice
I'm the king of Pomona
And I've got something to say

            
            
Suggest correction
Creating personal tab
Creating personal tab
You can edit any tab online and save it as your Personal.

You can edit, replace or remove any tab part or add personal notes – all changes will be seen only by you.

Personal tabs can be accessed anytime from any device, even offline.
Learn more »
comments
print report bad tab
1 comment total.
0 reply
pc2520 225 Mar 25, 2013 06:12 AM

i play a G instead of Fmaj7 at the end of the bridge...much better than version 1

guest
Wanna post a correction for this tab? Suggest correction