Oops, an error
Loading. Please wait.

I Should Have Known It Tab

version 1
version 1

Whole song

19,782 views 1 this week
1 commentread comment
1 2 3 4 5
not so good
x 6
add to favorites
launch autoscroll
font size
0
reset
how to read this tab
guitar tuner
Tab Pro tools
  • play this tab
  • loop segment
  • change instrument
  • show fretboard
  • metronome
×
Best way to learn
"I Should Have Known It"
Autoscroll
slow
fast
+/-
esc
set tempo
stop
Difficulty
intermediate
-------------------------------------------------------------------------------
                             I SHOULD HAVE KNOWN IT - Tom Petty and the Heartbreakers
-------------------------------------------------------------------------------

Tuning: Standard (EADGBe)

e|---------------------------------------------------------------------------|
B|---------------------------------------------------------------------------|
G|--------------------------------------------2b-0---------------------------|
D|---------------------------------0h3p0-------------------------------------|
A|---------3---------3-------------------------------------------------------|
E|----5b--------5b--------3~-------------------------------------------------|

e|---------------------------------------------------------------------------|
B|---------------------------------------------------------------------------|
G|---------------------------------------------0-----------------------------|
D|-------------------------------------0h3-----------------------------------|
A|------------3------------3-------------------------------------------------|
E|-----5b-----------5b----------3~-------------------------------------------|

e|---------------------------------------------------------------------------|
B|---------8-8-8-8-8-7-6------------15b--------------------------------------|
G|---------9-9-9-9-9-8-7------------17b--------------------------------------|
D|---------7-7-7-7-7-6-5-----------------------------------------------------|
A|---------------------------------------------------------------------------|
E|---------------------------------------------------------------------------|

************************************

| /   slide up
| \   slide down
| h   hammer-on
| p   pull-off
| ~   vibrato
| +   harmonic
| x   Mute note
| b   Bend
| pb  Pre-bend
| br  Bend release
| pbr Pre-bend release
| brb Bend release bend

************************************
comments
print report bad tab
1 comment total.
+1 reply
B_of_H wrote on June 15 2010, 12:55 pm

i hear it more like:

[Tab]
e|---------------------------------------------------------------------------|
B|---------------------------------------------------------------------------|
G|----------------------------------3----------------------------------------|
D|--------------------------------3---5--------------------------------------|
A|---------3---------3--------3-5--------------------------------------------|
E|----6b--------6b--------3~-------------------------------------------------|

e|---------------------------------------------------------------------------|
B|---------------------------------------------------------------------------|
G|---------------------------------------------------------------------------|
D|---------------------------------------3--5--------------------------------|
A|------------3------------3--------3--5-------------------------------------|
E|-----6b-----------6b----------3~-------------------------------------------|

e|---------------------------------------------------------------------------|
B|---------------------------------------------------------------------------|
G|--------------------------3--0---------------------------------------------|
D|--------------------0--3---------------------------------------------------|
A|--1b—3--1b--3-----3--------------------------------------------------------|
E|----~----------3-----------------------------------------------------------|

e|---------------------------------------------------------------------------|
B|---------------------------------------------------------------------------|
G|-------------------------0-------------------------------------------------|
D|--------------------0--3---------------------------------------------------|
A|--1b--3—1b--3-----3--------------------------------------------------------|
E|-----~---------3-----------------------------------------------------------|

Slide up to A9 on 12th fret…then chromatic walkdown A9-Ab9-G9 then up to C9 on the 15th fret.

Next Chord Sequence is D to C/A to C. then a G and a little G pentatonic run

I want to post or [tab]
guest
You may want to rate the tab now too:
select rating
Please do not post tabs as comments. Select "correction" instead!