Oops, an error
Loading. Please wait.

Into The Great Wide Open Bass Tab

version 2
version 2

Whole song

Interactive

8,625 views 6 this week
no commentswrite comment
1 2 3 4 5
x 5
add to favorites
launch autoscroll
font size
0
reset
guitar tuner
Autoscroll
slow
fast
+/-
esc
set tempo
stop
Help us to improve Ultimate-Guitar.com Take our survey!
×
Author
Difficulty
novice
-------------------------------------------------------------------------------
			     INTO THE GREAT WIDE OPEN – Tom Petty
-------------------------------------------------------------------------------

Tabbed By : J. Vamos
e-mail: Ford68Pony@yahoo.com

Tuning: EADG

Great Tab for the Novice (I know, as I am one).  
Easy 4/4 timing with most notes landing direction on the beat.


Here is how it flows:
1st Run – Intro, Verse 1, Bridge 1, 
2nd Run – Verse 2, Bridge 2, Chorus 1, Bridge 1 (x2), Solo
3rd Run – Verse 3, Bridge 1, Verse 4, Bridge 2, Chorus 2, Chorus 2, Bridge 1 (x2)


Intro:

G|-----------------|
D|-----------------|
A|-----------------|
E|-0-0-0-0-0-0-0-0-|	x4

Verse 1:

	x4
G|-----------|---------------------0000-----------------|
D|-----------|--------------------------333-------------|
A|-----------|-0000-------------------------3-3333-3333-|
E|-0000-0000-|------3333-2222-3333----------------------|

Verse 2:

	x4
G|-----------|---------------------00-0----------------|
D|-----------|--------------------------33-3-----------|
A|-----------|-00-0--------------------------3333-3333-|
E|-0000-0000-|------33-3-22-2-33-3---------------------|


Verse 3:

	  x4
G|-----------|---------------------0000----------------|
D|-----------|--------------------------3333-----------|
A|-----------|-0000--------------------------3333-3333-|
E|-0000-0000-|------3333-2222-3333---------------------|

Verse 4:

	  x4
G|-----------|---------------------0000----------------|
D|-----------|--------------------------3333-----------|
A|-----------|-----------0000-3333-----------3333-3333-|
E|-0000-0000-|-2222-3333-------------------------------|

Bridge 1

G|---------|
D|---------|
A|---3-----|
E|-33--3-3-|

Bridge 2

G|-------------------------|
D|-----------------0-00000-|
A|---3---------3-----------|
E|-33--3-3---33--3---------|

Chorus 1:

G|-----------------------------------------|-----------------------------------|
D|-----------0000-0000------2222-0000------|-----------0000-0000---------------|
A|------3333--------------------------0000-|------3333-----------------------0-|
E|-3333----------------3333----------------|-3333----------------3333-1111-0---|

Chorus 2:

G|-----------------------------------------|-------------------------------------|
D|-----------0000-0000------2222-0000------|-----------0000-0000-----------------|
A|------3333--------------------------0000-|------3333-------------------------0-|
E|-3333----------------3333----------------|-3333----------------3333-1111-000---|


Guitar Solo:

G|-----------------------------------------|
D|-2222-1111-0000--------------------------|
A|----------------4444----------------0000-|
E|---------------------0000-2222-3333------|

| /  slide up
| \  slide down
| h  hammer-on
| p  pull-off
| ~  vibrato
| +  harmonic
| x  Mute note
===============================================================================
Suggest correction
comments
print report bad tab
guest
You may want to rate the tab now too:
select rating
Wanna post a correction for this tab? Suggest correction