Oops, an error
Loading. Please wait.

Jack Tab

3,245 views 6 this week
1 commentread comment
1 2 3 4 5
accurate
x 4
add to favorites
launch autoscroll
font size
0
reset
how to read this tab
guitar tuner
Tab Pro tools
  • play this tab
  • loop segment
  • change instrument
  • show fretboard
  • metronome
×
Best way to learn
"Jack"
Autoscroll
slow
fast
+/-
esc
set tempo
stop
Difficulty
novice
Tabbed by: Raymond Garza
e-mail: ray@nirofex.com

This is the tab for 'Jack' off of Tom Petty's 'Highway Companion' - a kick ass album.

Verse -

A                G
You say what you want to Jack
A                G
I'm gonna get my baby back
A            G
Trouble came right away
A                 G
Now you say she's gone to stay
D           C
Cough it up hit the street
D              C
Left without a word to meet
A       G
Ohhhhhh You don't know
A                   G
How that Girl could touch my soul

Chorus -

E-----------------------------|
B-----------------------------|
G-----------------------------|
D-----------------------------|
A--2-2-0-2-----0-2-0---0-0----|
E--------------------3--------|


E-----------------------------|
B-----------------------------|
G-----------------------------|
D-----------------------------|
A--2-2-0-2-----0-2-0----------|
E--------------------3-0-0----|

G                A
You say what you want to Jack
C                D
I'm gonna get my baby back


And thats pretty much it!
comments
print report bad tab
1 comment total.
0 reply
shav0r wrote on March 15 2008, 09:42 am

Pretty good, apart from the fact that some of the background fills are missing (i Don't blame you for it, they're a mish to figure out) I think that the chorus bit is chords, so:


e|-7--7-----7---5---7-----5--7--5--3--5--------|
B|-7--7-----7---5---7-----5--7--5--3--5--------|
G|-7--7-----7---5---7-----5--7--5--3--5--------|
D|-9--9-----9---7---9-----7--9--7--5--7--------|
A|-9--9-----9---7---9-----7--9--7--5--7--------|
E|-7--7-----7---5---7-----5--7--5--3--5--------|

e|-7--7-----7---5---7-----5--7--5--3--0--------|
B|-7--7-----7---5---7-----5--7--5--3--0--------|
G|-7--7-----7---5---7-----5--7--5--3--0--------|
D|-9--9-----9---7---9-----7--9--7--5--2--------|
A|-9--9-----9---7---9-----7--9--7--5--2--------|
E|-7--7-----7---5---7-----5--7--5--3--0--------|

I want to post or [tab]
guest
You may want to rate the tab now too:
select rating
Please do not post tabs as comments. Select "correction" instead!