Oops, an error
Loading. Please wait.

Listen To Her Heart Bass Tab

version 1
version 1

Whole song

Interactive

5,932 views 12 this week
2 commentsread comments
1 2 3 4 5
excellent!
x 3
add to favorites
launch autoscroll
font size
0
reset
guitar tuner
Autoscroll
slow
fast
+/-
esc
set tempo
stop
Help us to improve Ultimate-Guitar.com Take our survey!
×
Contributor
jamesr 990
-------------------------------------------------------------------------------
			    Listen To her heart - Tom Petty
-------------------------------------------------------------------------------

Tabbed By : James Ryan
e-mail: james_ryan@atlanticbb.net

Updated with some comments from wag89, Thanks

Tuning: Standard

Intro
G|------------------------------------------|
D|--2/7----------7/2------------------------|
A|------------------------------------------|
E|------------------------------------------|

Verse
G|------------------------------------------|
D|------------------------------------------|
A|--0-0-0-0-0-0-0-0-0-0-0--4-0-5-4----------|
E|------------------------------------------|

Chorus
G|--------------------------------------------|
D|--------------------------------------------|
A|--0-0-0-0-0-0-0-0-0-0-0--4-0-5-0-4----------|
E|--------------------------------------------|

G|--------------------------------------------|
D|--------------------------------------------|
A|------------------------0-0-0-0-0-0-0-0-0---|
E|--3-3-3-3-3-3-3-3---------------------------|

G|--------------------------------------------|
D|--------------------------------------------|
A|-------------------0-0-0-0-0-0-0-4-0-5-0-4--|
E|--3-3-3-3-3-3-3-3---------------------------|

G|------------------------------------|
D|------------------------------------|
A|------------------------------------|
E|-0-0-0-0-0-0-0-0-0--0-0-0-0-0-0-0-0-|

Bridge
G|------------------------------------|
D|------------------------------------|
A|------12------10~--12~---10~---12~--|
E|--12------12------------------------|

G|------------------------------------|
D|------------------------------------|
A|--7-7-7-7-7-7-7-7-7-----------------|
E|------------------------------------|


| /  slide up
| \  slide down
| h  hammer-on
| p  pull-off
| ~  vibrato
| +  harmonic
| x  Mute note
===============================================================================
comments
We did not receive enough feedback on this tab! Please rate:
print report bad tab
1 2 3 4 5
2 comments total.
0 reply
wag89 62 wrote on March 23 2009, 04:49 pm

close, i think that little riff at the end of each verse line and at the end of the chorus is 0-4-0-4/5-4-0 thats what i play and i think its dead on, other that, great job! thumbs up!

0 reply
wag89 62 wrote on March 23 2009, 05:14 pm

o, i forgot something in the intro, i the 4th measure on the first beat the bass does a slide from 0 to 12, and then 1st beat of the 5th measure its a slide back down from 12 to 0. If i hear anything else i'll pass it on.

I want to post or [tab]
guest
You may want to rate the tab now too:
select rating
Please do not post tabs as comments. Select "correction" instead!