Oops, an error
Loading. Please wait.

Listen To Her Heart Tab

version 1
version 1

Whole song

Interactive

33,422 views 24 this week
no commentswrite comment
1 2 3 4 5
x 6
add to favorites
launch autoscroll
font size
0
reset
how to read this tab
guitar tuner
Autoscroll
slow
fast
+/-
esc
set tempo
stop
Help us to improve Ultimate-Guitar.com Take our survey!
×
Author
Difficulty
novice
-------------------------------------------------------------------------------
          Listen to her heart - Tom Petty 
-------------------------------------------------------------------------------
Tabbed by:Willie D-E
Email:Pip3kin@aol.com

Tuning:Standard

Intro
      A
e|--------0-0-0---0-0---0-0----0-0--0---0-0---------|
B|----2---2-2-0---0-0---0-2--2-2-2--0---0-2---------|
G|----2---------2-----2------2--------2-------------|
D|----2---------2-----2------2--------2-------------|
A|----0---------0------------0--------0-------------|
E|--------------------------------------------------|


e|--------0-0-0---0-0---0-0----0-0--0---------|   
B|----2---2-2-0---0-0---0-2--2-2-2--0---------|
G|----2---------2-----2------2--------2-------|
D|----2---------2-----2------2--------2-------|
A|----0---------0------------0--------0-------|
E|-------------------------------------------|


e|--0-0-0----0-0-0-------|
B|--2-0-0-2--2-0-0-------|
G|--------2--------2-2---|
D|-----------------------|
A|-----------------------| 
E|-----------------------|


Verses
e|--------------------|
B|--2-2---------------|
G|--2-2---------------|
D|--2-2---------------|
A|--0-0---------------|
E|--------------------|
         You think your gonna.....

Chorus
e|---------------0-0-0----0---0---0------3------0-0-0--0--0--0---|
B|------------2--2-2-0----0---0---0------3------2-2-0--0--0--0---|
G|------------2---------2---2---2--------0----2------------------|
D|------------2---------2---2---2--------0-0--2-------2--2--2----|
A|------------0--------------------------2-2--0-------2--2--2----|
E|---------------------------------------3-3---------------------|
  Shes gonna....             Its gonna tell her....  


          E                            G             A
she might need a lot of loven but she dont need you     



G                             A
  And you just can creep up behind her 


e|---10-9--------|
B|--------10-----|
G|-----------9---|
D|---------------|
A|---------------|
E|---------------|

G                                A            E
 And you can uderstand that shes my girl shes my girl 

Intro
Suggest correction
comments
print report bad tab
guest
You may want to rate the tab now too:
select rating
Wanna post a correction for this tab? Suggest correction