Oops, an error
Loading. Please wait.

Listen To Her Heart tab

version 3
version 3

Whole song

Interactive

208 views 1 this week
no commentswrite comment
1 2 3 4 5
3 more votes to show rating
add to favorites
×
Save as Personal and add changes to this tab that will be seen only by you. Learn more ›
×
You can save this tab as Personal to edit and correct it or add notes. All changes will be seen only by you. Learn more »
launch autoscroll
font size
0
reset
how to read this tab
guitar tuner
backing track
0:00
0:00
edit
Autoscroll
slow
fast
+/-
esc
set tempo
stop
Author
Difficulty
LISTEN TO HER HEART

As recorded by Tom Petty & The Heartbreakers
(From the 1978 Album YOU'RE GONNA GET IT!)

Words and Music by Tom Petty

Transcribed by Slowhand


Gtr I (E A D G B E) - 'Tom Petty - Electric Guitar'
Gtr II (E A D G B E) - 'Mike Campbell - Electric Guitar'
Gtr III (E A D G B E) - 'Tom Petty - Electric 12-string Guitar'
Gtr IV (E A D G B E) - 'Mike Campbell - Electric 12-string Guitar'


 Intro
  Q=125
  A
 4/4
  Gtr I (El. Gtr. w/ light dist.)
  Q  Q  E Q  E   Q  E E E Q.     Q  Q  E Q  E   Q  H.
|----0--0-0----|-0--0---0-0----|----0--0-0----|-0--0-----|
|----2--2-0----|-0--0---0-2----|----2--2-0----|-0--2-----|
|-2----------2-|------2--------|-2----------2-|----2-----|
|-2----------2-|---------------|-2----------2-|----2-----|
|-0------------|---------------|-0------------|----0-----|
|--------------|---------------|--------------|----------|
|
| Gtr II (El. Gtr. w/ light dist.)
| Q  Q  E Q  E   Q  E E E Q.     Q  Q  E Q  E   Q  H.
|----0--0-0----|-0--0---0-0----|----0--0-0----|-0--------|
|----2--2-0----|-0--0---0-2----|----2--2-0----|-0--------|
|--------------|------2--------|--------------|----------|
|------------2-|---------------|------------2-|----2-----|
|-0------------|---------------|-0------------|----------|
|--------------|---------------|--------------|----------|


                                                  Gtrs I, III (El. 12-str. Gtr. w/ light dist.)
  Q  Q  E Q  E   Q  E E E Q.     Q  Q  E Q  S S   E S S E S S E S S E S S
|----0--0-0----|-0--0---0-0----|----0--0-0--0-0-|-0-0-0-0-0-0-0-0-0-0-0-0-|
|----2--2-0----|-0--0---0-2----|----2--2-0--2-2-|-2-2-2-2-2-2-2-2-2-2-2-2-|
|-2----------2-|------2--------|-2----------2-2-|-2-2-2-2-2-2-2-2-2-2-2-2-|
|-2----------2-|---------------|-2----------2-2-|-2-2-2-2-2-2-2-2-2-2-2-2-|
|-0------------|---------------|-0----------0-0-|-0-0-0-0-0-0-0-0-0-0-0-0-|
|--------------|---------------|----------------|-------------------------|
|
| Q  Q  E Q  E   Q  E E E Q.     Q  Q  E Q  S S   E E   E E   E E   E E
|----0--0-0----|-0--0---0-0----|----0--0-0------|-0-0---0-----0-0---0-----|
|----2--2-0----|-0--0---0-2----|----2--2-0------|-2-0---0-2---2-0---0-----|
|--------------|------2--------|------------2-2-|---------2-----------0---|
|------------2-|---------------|------------2-2-|---------------------0---|
|-0------------|---------------|-0--------------|-------------------------|
|--------------|---------------|----------------|-------------------------|


  Gtr I
  Q  Q  E Q   E    Q   E E  E  Q.
|----0--0-0-----|--0---0----0--0--------|
|----2--2-0-----|--0---0----0--2--------|
|-2-----------2-|--------2--------------|
|-2-----------2-|-----------------------|
|-0-------------|-----------------------|
|---------------|-----------------------|
|
| Gtr II
| Q  Q  Q   Q      Q   Q    E  E  E E
|---------------|-----------------------|
|-2--2--2---2---|--2---2----------------|
|-2--2--2---2---|--2---2----------------|
|-2--2--2---2---|--2---2----------------|
|-0--0--0---0---|--0---0----4--0--5-4---|
|---------------|-----------------------|
|
| Gtr III 
| W               +H       +E  E  E S S
|---------------|-----------------------|
|-2-------------|-(2)------(2)-2--2-2-2-|
|-2-------------|-(2)------(2)-2--2-2-2-|
|-2-------------|-(2)------(2)-2--2-2-2-|
|-0-------------|-(0)------(0)-0--0-0-0-|
|---------------|-----------------------|


  Q  Q  E Q   E    Q   H.
|----0--0-0-----|--0---0----------------|
|----2--2-0-----|--0---2----------------|
|-2-----------2-|------2----------------|
|-2-----------2-|------2----------------|
|-0-------------|------0----------------|
|---------------|-----------------------|
|
| Q  Q  Q   Q      Q   Q    E  E E E
|---------------|-----------------------|
|-2--2--2---2---|--2---2----------------|
|-2--2--2---2---|--2---2----------------|
|-2--2--2---2---|--2---2----------------|
|-0--0--0---0---|--0---0----4--0-5-4----|
|---------------|-----------------------|
|
| W               +H       +E  E E S S
|---------------|-----------------------|
|-2-------------|-(2)------(2)-2-2-2-2--|
|-2-------------|-(2)------(2)-2-2-2-2--|
|-2-------------|-(2)------(2)-2-2-2-2--|
|-0-------------|-(0)------(0)-0-0-0-0--|
|---------------|-----------------------|


  Q  Q  E Q   E    Q   E E  E  Q.
|----0--0-0-----|--0---0----0--0--------|
|----2--2-0-----|--0---0----0--2--------|
|-2-----------2-|--------2--------------|
|-2-----------2-|-----------------------|
|-0-------------|-----------------------|
|---------------|-----------------------|
|
| Q  Q  Q   Q      Q   Q    E  E  E E
|---------------|-----------------------|
|-2--2--2---2---|--2---2----------------|
|-2--2--2---2---|--2---2----------------|
|-2--2--2---2---|--2---2----------------|
|-0--0--0---0---|--0---0----4--0--5-4---|
|---------------|-----------------------|
|
| W               +H       +E  E  E S S
|---------------|-----------------------|
|-2-------------|-(2)------(2)-2--2-2-2-|
|-2-------------|-(2)------(2)-2--2-2-2-|
|-2-------------|-(2)------(2)-2--2-2-2-|
|-0-------------|-(0)------(0)-0--0-0-0-|
|---------------|-----------------------|


  Q  Q  E Q   E    Q   H.
|----0--0-0-----|--0---0----------------||
|----2--2-0-----|--0---2----------------||
|-2-----------2-|------2----------------||
|-2-----------2-|------2----------------||
|-0-------------|------0----------------||
|---------------|-----------------------||
|
| Q  Q  Q   Q      Q   Q    E  E E E
|---------------|-----------------------||
|-2--2--2---2---|--2---2----------------||
|-2--2--2---2---|--2---2----------------||
|-2--2--2---2---|--2---2----------------||
|-0--0--0---0---|--0---0----4--0-5-4----||
|---------------|-----------------------||
|
| W               +H       +E  E E S S
|---------------|-----------------------||
|-2-------------|-(2)------(2)-2-2-2-2--||
|-2-------------|-(2)------(2)-2-2-2-2--||
|-2-------------|-(2)------(2)-2-2-2-2--||
|-0-------------|-(0)------(0)-0-0-0-0--||
|---------------|-----------------------||


   1st & 2nd Verses
    A
    W             +H      +Q.     E   W             +H      +Q.     E
||--------------|-------------------|-------------|-------------------|
||o-2-----------|-(2)-----(2)-----2-|-2-----------|-(2)-----(2)-----2-|
||--2-----------|-(2)-----(2)-----2-|-2-----------|-(2)-----(2)-----2-|
||--2-----------|-(2)-----(2)-----2-|-2-----------|-(2)-----(2)-----2-|
||o-0-----------|-(0)-----(0)-----0-|-0-----------|-(0)-----(0)-----0-|
||--------------|-------------------|-------------|-------------------|
|
|   Q  Q  Q  Q     Q   Q   E  E E E   Q  Q  Q  Q     Q   Q   E  E E E
||--------------|-------------------|-------------|-------------------|
||o-2--2--2--2--|--2---2------------|-2--2--2--2--|--2---2------------|
||--2--2--2--2--|--2---2------------|-2--2--2--2--|--2---2------------|
||--2--2--2--2--|--2---2------------|-2--2--2--2--|--2---2------------|
||o-0--0--0--0--|--0---0---4--0-5-4-|-0--0--0--0--|--0---0---4--0-5-4-|
||--------------|-------------------|-------------|-------------------|
|
|                  >
|   W             +W                  W              W
||--------------|-------------------|-------------|-------------------|
||o-------------|-------------------|-------------|-------------------|
||--2-----------|-(2)---------------|-------------|-------------------|
||--2-----------|-(2)---------------|-------------|-------------------|
||o-0-----------|-(0)---------------|-------------|-------------------|
||--------------|-------------------|-------------|-------------------|


  W             +H      +Q.     E   W             +H      +Q.    E
|-------------|-------------------|-------------|-------------------||
|-2-----------|-(2)-----(2)-----2-|-2-----------|-(2)-----(2)----2--||
|-2-----------|-(2)-----(2)-----2-|-2-----------|-(2)-----(2)----2--||
|-2-----------|-(2)-----(2)-----2-|-2-----------|-(2)-----(2)----2--||
|-0-----------|-(0)-----(0)-----0-|-0-----------|-(0)-----(0)----0--||
|-------------|-------------------|-------------|-------------------||
|
| Q  Q  Q  Q     Q   Q   E  E E E   Q  Q  Q  Q     Q   Q   Q   E E
|-------------|-------------------|-------------|-------------------||
|-2--2--2--2--|--2---2------------|-2--2--2--2--|--2---2---2---2-2--||
|-2--2--2--2--|--2---2------------|-2--2--2--2--|--2---2---2---2-2--||
|-2--2--2--2--|--2---2------------|-2--2--2--2--|--2---2---2---2-2--||
|-0--0--0--0--|--0---0---4--0-5-4-|-0--0--0--0--|--0---0---0---0-0--||
|-------------|-------------------|-------------|-------------------||


 Chorus
  $
  G       A                                     G       A
 2/4     4/4                                   2/4     4/4
  Gtrs I, II
  Q  Q    Q   Q   E Q   E   Q   E E +Q    E E   Q  Q    Q   Q   E Q   E
|-3-----|-----0---0-0-----|-0-----0-(0)-----0-|-3-----|-----0---0-0-------|
|-3-----|-----2---2-0-----|-0-----0-(0)-----0-|-3-----|-----2---2-0-------|
|-0--0--|-2-------------2-|-----2---------2---|-0--0--|-2-------------2---|
|-0--0--|-2-------------2-|-----2---------2---|-0--0--|-2-------------2---|
|-2--2--|-0---------------|-------------------|-2--2--|-0-----------------|
|-3--3--|-----------------|-------------------|-3--3--|-------------------|
|
| Gtr III
|         PM--------------------------------|           PM------------|
| Q  Q    E E E E E E E E   E E E E  E  E E E   Q  Q    E E E E E E E E
|-3--3--|-----------------|-------------------|-3--3--|-------------------|
|-3--3--|-----------------|-------------------|-3--3--|-------------------|
|-0--0--|-2-2-2-2-2-2-2-2-|-2-2-2-2--2--2-2-2-|-0--0--|-2-2-2-2-2-2-2-2---|
|-0--0--|-2-2-2-2-2-2-2-2-|-2-2-2-2--2--2-2-2-|-0--0--|-2-2-2-2-2-2-2-2---|
|-2--2--|-0-0-0-0-0-0-0-0-|-0-0-0-0--0--0-0-0-|-2--2--|-0-0-0-0-0-0-0-0---|
|-3--3--|-----------------|-------------------|-3--3--|-------------------|


                                         To Coda
                      E
                                       2/4
  Q   E E +Q    E E   W                 E E E E
|-0-----0-(0)-----0-|-----------------|----------|
|-0-----0-(0)-----0-|-----------------|----------|
|-----2---------2---|-1---------------|----------|
|-----2---------2---|-2---------------|-2-2-2-2--|
|-------------------|-2---------------|-2-2-2-2--|
|-------------------|-0---------------|-0-0-0-0--|
|
| PM------------------------------------------|
| E E E E  E  E E E   E E E E E E E E   E E E E
|-------------------|-----------------|----------|
|-------------------|-----------------|----------|
|-2-2-2-2--2--2-2-2-|-----------------|----------|
|-2-2-2-2--2--2-2-2-|-2-2-2-2-2-2-2-2-|-2-2-2-2--|
|-0-0-0-0--0--0-0-0-|-2-2-2-2-2-2-2-2-|-2-2-2-2--|
|-------------------|-0-0-0-0-0-0-0-0-|-0-0-0-0--|


 1.
  A
 4/4
  Q  Q  E Q  E    Q   E E  E  Q.
|----0--0-0----|--0---0----0--0----------||
|----2--2-0----|--0---0----0--2---------o||
|-2----------2-|--------2----------------||
|-2----------2-|-------------------------||
|-0------------|------------------------o||
|--------------|-------------------------||
|
| W              +H       +E  E  E S S
|--------------|-------------------------||
|-2------------|-(2)------(2)-2--2-2-2--o||
|-2------------|-(2)------(2)-2--2-2-2---||
|-2------------|-(2)------(2)-2--2-2-2---||
|-0------------|-(0)------(0)-0--0-0-0--o||
|--------------|-------------------------||


                                        Bridge
  2.
  A                                      G
                                      Gtrs I, II, III
  Q   Q   E Q   E   Q   E E +Q    E E    W
|-----0---0-0-----|-0-----0-(0)-----0-||-3----------------|
|-----2---2-0-----|-0-----0-(0)-----0-||-3----------------|
|-2-------------2-|-----2---------2---||-0----------------|
|-2-------------2-|-----2---------2---||-0----------------|
|-0---------------|-------------------||-2----------------|
|-----------------|-------------------||-3----------------|
|
|                                     Gtr IV (Clean El. 12-str. Gtr.)
| PM--------------------------------|
| E E E E E E E E   E E E E  E  E E E    Q  E E S S E E E
|-----------------|-------------------||------------0-----|
|-----------------|-------------------||--------2-3-2-----|
|-2-2-2-2-2-2-2-2-|-2-2-2-2--2--2-2-2-||----2h4-------4-2-|
|-2-2-2-2-2-2-2-2-|-2-2-2-2--2--2-2-2-||------------------|
|-0-0-0-0-0-0-0-0-|-0-0-0-0--0--0-0-0-||------------------|
|-----------------|-------------------||------------------|


                      A
  +W                  W          +W
|-(3)---------------|----------|---------------|
|-(3)---------------|-2--------|-(2)-----------|
|-(0)---------------|-2--------|-(2)-----------|
|-(0)---------------|-2--------|-(2)-----------|
|-(2)---------------|-0--------|-(0)-----------|
|-(3)---------------|----------|---------------|
|
|                                 |--3--|
| +H     +E  a Q  E   W           Q  Q  Q H
|-------------------|----------|-10--9---------|
|-------------------|----------|-------10------|
|-(2)----(2)--------|----------|----------9----|
|------------2h4--2-|-0--------|---------------|
|-------------------|----------|---------------|
|-------------------|----------|---------------|


  G                                          A          E5
  W                             +W           W          H    E E E E
|-3---------------------------|-(3)--------|----------|---------------|
|-3---------------------------|-(3)--------|-2--------|---------------|
|-0---------------------------|-(0)--------|-2--------|---------------|
|-0---------------------------|-(0)--------|-2--------|-2----2-2-2-2--|
|-2---------------------------|-(2)--------|-0--------|-2----2-2-2-2--|
|-3---------------------------|-(3)--------|----------|-0----0-0-0-0--|
|
| |---3----|    |---3----|
| Q   Q    Q    Q    Q   Q       W           W          W
|-----------------------------|------------|----------|---------------|
|-------------<12>------------|-[5]--------|----------|---------------|
|--------<12>------<12>-------|------------|----------|---------------|
|---<12>----------------[5]---|------------|----------|---------------|
|-----------------------------|------------|----------|---------------|
|-----------------------------|------------|----------|---------------|


                    Guitar Solo
                     A
                  Gtr I
  E E E E E E E E    Q   Q     Q   Q
|-----------------||-----0---------0---|
|-----------------||-----2---------2---|
|-----------------||-----2---------2---|
|-2-2-2-2-2-2-2-2-||-2---------2-------|
|-2-2-2-2-2-2-2-2-||-0---------0-------|
|-0-0-0-0-0-0-0-0-||-------------------|
|
|                 Gtr II
| W                  Q   E  E  E E E E
|-----------------||----10-10-10s9-9-9-|
|-----------------||-------------------|
|-----------------||-------------------|
|-----------------||-------------------|
|-----------------||-------------------|
|-----------------||-------------------|
|
|                 Gtr III
| W                  Q   Q     Q   Q
|-----------------||-------------------|
|-----------------||-2---2-----2---2---|
|-----------------||-2---2-----2---2---|
|-----------------||-2---2-----2---2---|
|-----------------||-0---0-----0---0---|
|-----------------||-------------------|


  Q   Q   Q   Q      Q    Q     Q   Q
|-----0-------0---|-------0---------0----|
|-----2-------2---|-------2---------2----|
|-----2-------2---|-------2---------2----|
|-2-------2-------|--2----------2--------|
|-0-------0-------|--0----------0--------|
|-----------------|----------------------|
|
| E E E E E E Q     +Q    E  E  E E E E
|-9S7-7s5-7s9-9---|-(9)--10-10-10s9-9s7--|
|-----------------|----------------------|
|-----------------|----------------------|
|-----------------|----------------------|
|-----------------|----------------------|
|-----------------|----------------------|
|
| Q   Q   E E E E    Q    Q     Q   Q
|-----------------|----------------------|
|-2---2-----------|--2----2-----2---2----|
|-2---2-----------|--2----2-----2---2----|
|-2---2-----------|--2----2-----2---2----|
|-0---0---4-0-5-4-|--0----0-----0---0----|
|-----------------|----------------------|


  Q   Q  Q   Q      Q      Q     Q   Q     Q   Q   Q   Q      Q   Q    Q   Q
|-----0------0---|---------0---------0---|-----0-------0---|------0--------0---|
|-----2------2---|---------2---------2---|-----2-------2---|------2--------2---|
|-----2------2---|---------2---------2---|-----2-------2---|------2--------2---|
|-2------2-------|--2------------2-------|-2-------2-------|--2--------2-------|
|-0------0-------|--0------------0-------|-0-------0-------|--0--------0-------|
|----------------|-----------------------|-----------------|-------------------|
|
|            ~~~~~~~~~~
| E E Q  E E Q     +Q   a  E  E  E E E E   E E E E E E Q     +Q   E  E E E E E
|-7s5-5--5-5-5---|-(5)--9s10-10-10s9-9-9-|-9s7-7s5-7s9-9---|-(9)--9-10-9-7-7s5-|
|----------------|-----------------------|-----------------|-------------------|
|----------------|-----------------------|-----------------|-------------------|
|----------------|-----------------------|-----------------|-------------------|
|----------------|-----------------------|-----------------|-------------------|
|----------------|-----------------------|-----------------|-------------------|
|
| Q   Q  E E E E    Q      Q     Q   Q     Q   Q   E E E E    Q   Q    Q   Q
|----------------|-----------------------|-----------------|-------------------|
|-2---2----------|--2------2-----2---2---|-2---2-----------|--2---2----2---2---|
|-2---2----------|--2------2-----2---2---|-2---2-----------|--2---2----2---2---|
|-2---2----------|--2------2-----2---2---|-2---2-----------|--2---2----2---2---|
|-0---0--4-0-5-4-|--0------0-----0---0---|-0---0---4-0-5-4-|--0---0----0---0---|
|----------------|-----------------------|-----------------|-------------------|


                     Outro
      D.S. al Coda &
                      A
                   Gtr I
    Q  Q   Q  Q       Q  Q    E  Q    E
|------0------0----||----0----0--0------|
|------2------2----||----2----2--0------|
|------2------2----||-2---------------2-|
|---2------2-------||-2---------------2-|
|---0------0-------||-0-----------------|
|------------------||-------------------|
|
|                  Gtr II
| a Q  H.             Q  Q    Q     Q
|-5s7--5-----------||-------------------|
|------------------||-2--2----2-----2---|
|------------------||-2--2----2-----2---|
|------------------||-2--2----2-----2---|
|------------------||-0--0----0-----0---|
|------------------||-------------------|
|
|                  Gtr IV
|   Q  Q   Q  E E     Q  E E +E  Q.
|------------------||-------------------|
|---2--2---2--2-2--||----2-------2------|
|---2--2---2--2-2--||------4-(4)--------|
|---2--2---2--2-2--||-------------------|
|---0--0---0--0-0--||-0-----------------|
|------------------||-------------------|


   Q   E E +Q    E E   Q  Q   E  Q   E
|--0-----0-(0)-----0-|----0---0--0------|
|--0-----0-(0)-----0-|----2---2--0------|
|------2---------2---|-2-------------2--|
|------2---------2---|-2-------------2--|
|--------------------|-0----------------|
|--------------------|------------------|
|
|  Q   Q    E  E E E   Q  Q   Q    Q
|--------------------|------------------|
|--2---2-------------|-2--2---2----2----|
|--2---2-------------|-2--2---2----2----|
|--2---2-------------|-2--2---2----2----|
|--0---0----4--0-5-4-|-0--0---0----0----|
|--------------------|------------------|
|
| +Q   E E +H          Q  Q  +E  Q   E
|------0-------------|------------------|
|-(2)----3-(3)-------|----2--(2)--------|
|--------------------|-----------4---2--|
|--------------------|------------------|
|--------------------|-0----------------|
|--------------------|------------------|


  Q   E E +Q    E E   Q  Q    E  Q   E    Q   E E +Q    E E   Q  Q   E Q    E
|-0-----0-(0)-----0-|----0----0--0-----|--0-----0-(0)-----0-|----0---0-0-------|
|-0-----0-(0)-----0-|----2----2--0-----|--0-----0-(0)-----0-|----2---2-0-------|
|-----2---------2---|-2--------------2-|------2---------2---|-2-------------2--|
|-----2---------2---|-2--------------2-|------2---------2---|-2-------------2--|
|-------------------|-0----------------|--------------------|-0----------------|
|-------------------|------------------|--------------------|------------------|
|
| Q   Q    E  E E E   Q  Q    Q    Q      Q   Q    E  E E E   Q  Q   Q    Q
|-------------------|------------------|--------------------|------------------|
|-2---2-------------|-2--2----2----2---|--2---2-------------|-2--2---2----2----|
|-2---2-------------|-2--2----2----2---|--2---2-------------|-2--2---2----2----|
|-2---2-------------|-2--2----2----2---|--2---2-------------|-2--2---2----2----|
|-0---0----4--0-5-4-|-0--0----0----0---|--0---0----4--0-5-4-|-0--0---0----0----|
|-------------------|------------------|--------------------|------------------|
|
| Q.    E +E  E Q     Q  E E +E  E Q     +Q   E E +H          Q  E E E Q.
|-------------------|------------------|------0-------------|------------------|
|-3-----2-(2)-------|----2-------2-2---|-(2)----3-(3)-------|----2---2---------|
|-------------4-2---|------4-(4)-------|--------------------|------4---4-------|
|-------------------|------------------|--------------------|------------------|
|-------------------|-0----------------|--------------------|-0----------------|
|-------------------|------------------|--------------------|------------------|


  Q   E E +Q    E E   Q   Q     E  Q     E
|-0-----0-(0)-----0-|-----0-----0--0-------|
|-0-----0-(0)-----0-|-----2-----2--0-------|
|-----2---------2---|-2------------------2-|
|-----2---------2---|-2------------------2-|
|-------------------|-0--------------------|
|-------------------|----------------------|
|
| Q   Q    E  E E E   Q   Q     Q     Q
|-------------------|----------------------|
|-2---2-------------|-2---2-----2-----2----|
|-2---2-------------|-2---2-----2-----2----|
|-2---2-------------|-2---2-----2-----2----|
|-0---0----4--0-5-4-|-0---0-----0-----0----|
|-------------------|----------------------|
|
| Q.    E +E  E Q     Q   E  E  E  E  E  E
|-------------------|----------------------|
|-3-----2-(2)-------|----14-------15-------|
|-------------4-2---|-------14-------14----|
|-------------------|----------14-------14-|
|-------------------|----------------------|
|-------------------|----------------------|


   Q     E  E  +Q         E  E   Q   Q     E  Q     E
|--0--------0--(0)-----------0-|-----0-----0--0-------|
|--0--------0--(0)-----------0-|-----2-----2--0-------|
|--------2----------------2----|-2------------------2-|
|--------2----------------2----|-2------------------2-|
|------------------------------|-0--------------------|
|------------------------------|----------------------|
|
|  Q     Q      E   E     E  E   Q   Q     Q     Q
|------------------------------|----------------------|
|--2-----2---------------------|-2---2-----2-----2----|
|--2-----2---------------------|-2---2-----2-----2----|
|--2-----2---------------------|-2---2-----2-----2----|
|--0-----0------4---0-----5--4-|-0---0-----0-----0----|
|------------------------------|----------------------|
|
|  E  E  E  E  +E   S  S  E  E   Q   E  E  E  E  E  E
|------------------------------|----------------------|
|-14---------------------------|----14-------15-------|
|----14----16-(16)-16-16-16-16-|-------14-------14----|
|-------14---------------------|----------14-------14-|
|------------------------------|----------------------|
|------------------------------|----------------------|


   Q     E  E  +Q     E E   Q   Q     E  Q     E
|--0--------0--(0)------0-|-----0-----0--0-------|
|--0--------0--(0)------0-|-----2-----2--0-------|
|--------2------------2---|-2------------------2-|
|--------2------------2---|-2------------------2-|
|-------------------------|-0--------------------|
|-------------------------|----------------------|
|
|  Q     Q      E  E  E E   Q   Q     Q     Q
|-------------------------|----------------------|
|--2-----2----------------|-2---2-----2-----2----|
|--2-----2----------------|-2---2-----2-----2----|
|--2-----2----------------|-2---2-----2-----2----|
|--0-----0------4--0--5-4-|-0---0-----0-----0----|
|-------------------------|----------------------|
|
|  E  E  E  E  +Q     Q     Q   E  E  E  E  E  E
|-------------------------|----------------------|
|-14----------------------|----14-------15-------|
|----14----16-(16)---14---|-------14-------14----|
|-------14----------------|----------14-------14-|
|-------------------------|----------------------|
|-------------------------|----------------------|


   Q     E  E  +Q         E  E   Q   Q     E  Q     E
|--0--------0--(0)-----------0-|-----0-----0--0-------|
|--0--------0--(0)-----------0-|-----2-----2--0-------|
|--------2----------------2----|-2------------------2-|
|--------2----------------2----|-2------------------2-|
|------------------------------|-0--------------------|
|------------------------------|----------------------|
|
|  Q     Q      E   E     E  E   Q   Q     Q     Q
|------------------------------|----------------------|
|--2-----2---------------------|-2---2-----2-----2----|
|--2-----2---------------------|-2---2-----2-----2----|
|--2-----2---------------------|-2---2-----2-----2----|
|--0-----0------4---0-----5--4-|-0---0-----0-----0----|
|------------------------------|----------------------|
|
|  E  E  E  E  +E   S  S  E  E   Q   E  E  E  E  E  E
|------------------------------|----------------------|
|-14---------------------------|----14-------15-------|
|----14----16-(16)-16-16-16-16-|-------14-------14----|
|-------14---------------------|----------14-------14-|
|------------------------------|----------------------|
|------------------------------|----------------------|


   Q     E  E  +Q      E  E   Q     Q   E  Q    E
|--0--------0--(0)--------0-|-------0---0--0------|
|--0--------0--(0)--------0-|-------2---2--0------|
|--------2-------------2----|-2-----------------2-|
|--------2-------------2----|-2-----------------2-|
|---------------------------|-0-------------------|
|---------------------------|---------------------|
|
|  Q     Q      E   E  E  E   Q     Q   Q    Q
|---------------------------|---------------------|
|--2-----2------------------|-2-----2---2----2----|
|--2-----2------------------|-2-----2---2----2----|
|--2-----2------------------|-2-----2---2----2----|
|--0-----0------4---0--5--4-|-0-----0---0----0----|
|---------------------------|---------------------|
|
|  E  E  E  E  +E   E  E  E   E  E  Q   E  Q    E
|---------------------------|---14-----14------14-|
|-14-------15-(15)----------|------17-----17------|
|----14------------14-16-14-|---------------------|
|-------14------------------|---------------------|
|---------------------------|---------------------|
|---------------------------|---------------------|


                                    D
   Q   E  E  +Q      E E    H.       Q
|--0------0--(0)-------0-|--0--------2---|
|--0------0--(0)-------0-|--2--------3---|
|------2-------------2---|--2--------2---|
|------2-------------2---|--2--------0---|
|------------------------|--0------------|
|------------------------|---------------|
|
|  Q   Q      Q      E E    H.       Q
|------------------------|--0--------2---|
|--2---2------2------2-2-|--2--------3---|
|--2---2------2------2-2-|--2--------2---|
|--2---2------2------2-2-|--2--------0---|
|--0---0------0------0-0-|--0------------|
|------------------------|---------------|
|
|  Q   E  E  +E   E  q      H.       Q
|-----14---------14------|---------------|
|-17-----17-(17)----15---|-14-------15---|
|-------------------14---|-14-------14---|
|------------------------|-14-------16---|
|------------------------|---------------|
|------------------------|---------------|


  A        D     A
  Gtrs I, II
   H.       Q     W           +W
|--0--------2--|--0--------|--(0)----*|
|--2--------3--|--2--------|--(2)----*|
|--2--------2--|--2--------|--(2)----*|
|--2--------0--|--2--------|--(2)----*|
|--0-----------|--0--------|--(0)----*|
|--------------|-----------|---------*|
|
| Gtr IV
|  H.       Q     W           +W
|--------------|-----------|---------*|
|-14-------15--|-14--------|-(14)----*|
|-14-------14--|-14--------|-(14)----*|
|-14-----------|-14--------|-(14)----*|
|--------------|-----------|---------*|
|--------------|-----------|---------*|


Duration Legend
---------------
W - whole; H - half; Q - quarter; E - 8th; S - 16th; T - 32nd; X - 64th; a - acciaccatura
+ - note tied to previous; . - note dotted; .. - note double dotted
Uncapitalized letters represent notes that are staccato (1/2 duration)
Irregular groupings are notated above the duration line
Duration letters will always appear directly above the note/fret number it represents the
duration for.  Duration letters with no fret number below them represent rests.  Multi-
bar rests are notated in the form Wxn, where n is the number of bars to rest for.  Low
melody durations appear below the staff

Tablature Legend
----------------
 h   - hammer-on
 p   - pull-off
 b   - bend
 pb  - pre-bend
 r   - bend release (if no number after the r, then release immediately)
 /\  - slide into or out of (from/to "nowhere")
 s   - legato slide
 S   - shift slide
  - natural harmonic
[n]  - artificial harmonic
n(n) - tapped harmonic
 ~   - vibrato
 tr  - trill
 T   - tap
 TP  - trem. picking
 PM  - palm muting
\n/  - tremolo bar dip; n = amount to dip
 \n  - tremolo bar down
 n/  - tremolo bar up
/n\  - tremolo bar inverted dip
 =   - hold bend; also acts as connecting device for hammers/pulls
 <>  - volume swell (louder/softer)
 x   - on rhythm slash represents muted slash
 o   - on rhythm slash represents single note slash

Misc Legend
-----------
 |  - bar
||  - double bar
||o - repeat start
o|| - repeat end
*|  - double bar (ending)
 :  - bar (freetime)
 $  - Segno
 &  - Coda
Tempo markers -  = BPM(8/16=s8/s16), where s8 = swing 8ths, s16 = swing 16ths



You think you're gonna take her away
With your money and your cocaine
Keep thinkin' that her mind is gonna change
But I know everything is okay

[Chorus:]
She's gonna listen to her heart
It's gonna tell her what to do
Well, she might need a lot of lovin'
But she don't need you

You want me to think that I'm being used
You want her to think it's over
Can't you see it don't matter what you do
Buddy you don't even know her

[Chorus]

And you just can't creep up behind her
And you can't understand that she's my girl
She's my girl

[Chorus] 


            
            
Suggest correction
Creating personal tab
Creating personal tab
You can edit any tab online and save it as your Personal.

You can edit, replace or remove any tab part or add personal notes – all changes will be seen only by you.

Personal tabs can be accessed anytime from any device, even offline.
Learn more »
Give kudos to tab author, rate the tab!
1 2 3 4 5
comments
print report bad tab
guest
You may want to rate the tab now too:
select rating
Wanna post a correction for this tab? Suggest correction