Oops, an error
Loading. Please wait.

Mary Janes Last Dance Tab

version 1
version 1

Whole song

Interactive

Video

377,840 views 399 this week
42 commentsread comments
1 2 3 4 5
accurate
x 56
add to favorites
launch autoscroll
font size
0
reset
how to read this tab
guitar tuner
Autoscroll
slow
fast
+/-
esc
set tempo
stop
Help us to improve Ultimate-Guitar.com Take our survey!
×
Contributor
Capo
bambam 1,753
1st fret
MARY JANE'S LAST DANCE
                  As recorded by Tom Petty & The Heartbreakers
                       (From the 1993 Album GREATEST HITS)

Words and Music by Tom Petty
Transcribed by BAMBAM

          Em                    A                  Asus2               Asus2/G
      0 2 2 0 0 0          x 0 2 2 2 0          x 0 2 2 0 0          3 x 2 2 0 0

         Dsus4                 Am                    G
      x x 0 2 3 3          x 0 2 2 1 0          3 2 0 0 0 3

      capo at the 1st fret
[Intro]

   Am           G       D            Am            Am7        G
   Gtr I
e|--------------------|--------0h2-0-0-0---------|------3----------------|
B|------1-1-1-----0-0-|-0h3-x--3-----1-1---1-1-1-|------1-1---------0-0--|
G|-0h2--2-2-2-0---0-0-|-0h2-x--2-----------2-2-2-|-0h2--2---2-0-0---0-0--|
D|-0h2--2-2-2-----0-0-|-0------------------2-2-2-|-0h2--------------0-0--|
A|-0------------------|------------------0-------|-0---------------------|
E|--------------3-----|--------------------------|----------------3------|

   D            Am          Am      G          D       Am
e|--------0h2-0-0-0-------|------------------|-----0h2---0-----------|
B|-0h3-x--3-----1-1---1-0-|-----1-1-----0-0--|-----3---------1-------|
G|-0h2-x--2-----2-2-2-2-0-|-0h2-2-2-----0-0--|---2-2---2---2-2-------|
D|-0------------------2-0-|-0h2-2-2-----0-0--|-0-0-0---2---2-2--2--2-|
A|------------------------|-0----------------|---------0---0-0-------|
E|------------------------|---------3-3------|-----------------------|

              G          D         Am
e|-0----0--------------|-------0h2-0-0---0-0-||
B|-0h1--1-1-1-------0--|-------3---1-1---1-1-||
G|-0h2--2-2-2-0-0-0-0--|-------2---2-2---2-2-||
D|-0h2--2-2-2-0-0-0-0--|-2-2-2-0---2-----2-2-||
A|-0----0-0-0----------|-0-0-0-----0---0-----||
E|------------3---3----|---------------------||


[1st Verse]

              G         D          Am
e|--------------------|--------0h2-0-0-0---------|
B|------1-1-1-----0-0-|-0h3-x--3-----1-1---1-1-1-|
G|-0h2--2-2-2-0---0-0-|-0h2-x--2-----------2-2-2-|
D|-0h2--2-2-2-----0-0-|-0------------------2-2-2-|
A|-0------------------|------------------0-------|
E|--------------3-----|--------------------------|

              G         D          Am                Am7        G
e|--------------------|--------0h2-0-0-0---------||-------3---------------|
B|------1-1-1-----0-0-|-0h3-x--3-----1-1---1-1-1-||o------1-1---------0-0-|
G|-0h2--2-2-2-0---0-0-|-0h2-x--2-----------2-2-2-||--0h2--2---2-0-0---0-0-|
D|-0h2--2-2-2-----0-0-|-0------------------2-2-2-||--0h2--------------0-0-|
A|-0------------------|------------------0-------||o-0--------------------|
E|--------------3-----|--------------------------||-----------------3-----|

   D          Am              Am7        G           D          Am
e|--------0h2-0-0-0---------|------3---------------|--------0h2-0-0-0---------|
B|-0h3-x--3-----1-1---1-1-1-|------1-1---------0-0-|-0h3-x--3-----1-1---1-1-1-|
G|-0h2-x--2-----------2-2-2-|-0h2--2---2-0-0---0-0-|-0h2-x--2-----------2-2-2-|
D|-0------------------2-2-2-|-0h2--------------0-0-|-0------------------2-2-2-|
A|------------------0-------|-0--------------------|------------------0-------|
E|--------------------------|----------------3-----|--------------------------|


 [2nd, 3rd & 4th Verse]

                 G
   Gtr I
e|-------------------------|
B|-------1---1-1-----0---0-|
G|-0h2---2---2-2-0---0---0-|
D|-0h2---2---2-2-----0---0-|
A|-0-----------------------|
E|-----------------3-------|

  Gtr II
e|-------------------------|
B|-------------------0-0---|
G|-------2---0-------0-0-0-|
D|---------2---------0-0---|
A|-0---0-------------------|
E|-------------3---3-------|

   D          Am                             G
e|--------0h2-0-0-0-----------|------------------------|
B|-0h3-x--3-----1-1-----1-1-1-|-------1--1-1-----0-0---|
G|-0h2-x--2-------------2-2-2-|-0h2---2--2-2-0---0-0---|
D|-0--------------------2-2-2-|-0h2---2--2-2-----0-0---|
A|------------------0---------|-0----------------------|
E|----------------------------|----------------3-------|

e|----------------------0-----|------------------------|
B|--------3-------1-0-1-1-----|------------------------|
G|--------2-------2-0-2-2---2-|------------------------|
D|-2---0------2---2-0-2-----2-|-------7\-------0-------|
A|----------------0-----------|-0---0-7\---------------|
E|----------------------------|----------3-3-------3-3-|

   D          Am              Am7        G
e|--------0h2-0-0-0---------|------3---------------|
B|-0h3-x--3-----1-1---1-1-1-|------1-1---------0-0-|
G|-0h2-x--2-----------2-2-2-|-0h2--2---2-0-0---0-0-|
D|-0------------------2-2-2-|-0h2--------------0-0-|
A|------------------0-------|-0--------------------|
E|--------------------------|----------------3-----|

e|--------0h2-----------0---|----------------------|
B|--------3---3-------1-----|------------------0-0-|
G|--------2-----------2-----|-0h2--------0-0---0-0-|
D|-0---0--------------2-----|----------------0-0-0-|
A|-0---0--------0-x-0-------|----------------------|
E|--------------------------|----------------------|

   D          Am
e|--------0h2-0--0--0----------------|
B|-0h3-x--3------1--1---1---1-1------|
G|-0h2-x--2-------------2---2-2------|
D|-0--------------------2---2-2------|
A|--------------------0--------------|
E|-----------------------------------|

e|--------3---0-(0)------------------|
B|--------3---------------1---1--1---|
G|-----2--2---------------2---2--2---|
D|-0-0-0--0---------------2---2--2---|
A|-----------------------------------|
E|-----------------------------------|


                                                     [Chorus]
   Am7         G           D          Am              Em
                                                      Gtr I
e|-------3---------------|--------0h2-0-0-0---------|----------|
B|-------1-1---------0-0-|-0h3-x--3-----1-1---1-1-1-|----------|
G|-0h2---2---2-0-0---0-0-|-0h2-x--2-----------2-2-2-|----------|
D|-0h2---------------0-0-|-0------------------2-2-2-|----------|
A|-0---------------------|------------------0-------|----------|
E|-----------------3-----|--------------------------|----------|

e|-------3---3-----------|--------0h2-0-------------|----------|
B|-------1---1-------0-0-|--------3-----------1-----|----------|
G|-------2---2-0-0-0-0-0-|--------2-------2-----2---|----------|
D|-------0---0-0-0-0-0-0-|-0-0-0------------2-----2-|----------|
A|-0---0-----------------|--------------0-----------|----------|
E|-------------3-3-3-----|--------------------------|----------|


             Asus2           A
  Gtr I

  | |||||||  | |||  | | | |   |     |    |  |  |  |  |  |
  / ///////  / ///  / / / /   /     /    /  /  /  /  /  /

  Gtr II
e|----------|------5-5-5-5--|-----9--9--9------12----12-----------|
B|----------|------5-5-5-5--|----10-10-10--/14----14----14--------|
G|----------|------6-6-6-6--|-/9---------------------------14\----|
D|----------|---------------|-------------------------------------|
A|----------|---------------|-------------------------------------|
E|----------|---------------|-------------------------------------|

  Em                    Asus2
  ||||||||   ||||||||   | ||    | |  |  | |
  ////////   ////////   / //    / /  /  / /

e|----------|----------|----0----9----9---------|
B|----------|----------|------------------------|
G|----------|----------|------/9---9-----9s=7---|
D|----------|----------|------------------------|
A|----------|----------|------------------------|
E|----------|----------|------------------------|


[Guitar Solo 1]
To Coda

  Asus2/G      Am          G
  |            |||   |     | |||
  /            xxx   /     x xx/

e|-7---------||----------------------|
B|----------o||---7b8r7-5---5---7b8r=|
G|-----------||---7b8r7-5---5---7b8r=|
D|-----------||-----------7----------|
A|----------o||----------------------|
E|-----------||----------------------|

  Dsus4       Am                   G
  |||   |     | |||    |||   |     | |||
  xxx   /     x xx/    xxx   /     x xx/

e|--------------------|-----------------------|
B|---7b8r7-5---5------|---7b8r7-5---5---7b8r==|
G|---7b8r7-5---5------|---7b8r7-5---5---7b8r==|
D|-----------7-----7--|-----------7-----------|
A|--------------------|-----------------------|
E|--------------------|-----------------------|

  Dsus4       Am                  G
  |||   |     | |||      | || |   | | | |
  xxx   /     x xx/      x xx /   x x x /

                   Gtr III
e|--------------------0-|-5--5-3-5-------------|
B|---7b8r7-5---5------0-|-5--5-5-5-5s8---8-8---|
G|---7b8r7-5---5--------|--------------0-----0-|
D|-----------7-----7----|----------------------|
A|----------------------|----------------------|
E|----------------------|----------------------|

  Dsus4            Am
  |  | ||           | | | |
  x  x x/           x x x /

e|-0-----0-----0--0----0-----0-----|
B|-8s10--8s10-10-12-10---8-8---10--|
G|---------------------------------|
D|---------------------------------|
A|---------------------------------|
E|---------------------------------|

                                                     [Harmonica Solo]
                                     D.S. al Coda &
                G              Dsus4        Am        Am         G
  |  | | |       | | | |       | ||   |     | |||
  x  x x /       x x x /       x xx   /     x xx/

                                                       Gtr I
e|------0------0--------0-----|-0------------------||---------------------|
B|-8-10---8-10---10p8-----3h5-|-3--1h3-1-----------||o------1-1-1-----0-0-|
G|--------------------9-------|----------2-0-2-----||--0h2--2-2-2-0---0-0-|
D|----------------------------|--------------------||--0h2--2-2-2-----0-0-|
A|----------------------------|--------------------||o-0------------------|
E|----------------------------|--------------------||---------------3-----|

   D          Am                                      G
   Gtr I
e|--------0h2-0-0-0----------||-||------------------------------|
B|-0h3-x--3-----1-1---1-1-1-o||-||o---------1-----1-1-----0---0-|
G|-0h2-x--2-----------2-2-2--||-||--0h2-----2-----2-2-0---0---0-|
D|-0------------------2-2-2--||-||--0h2-----2-----2-2-----0---0-|
A|------------------0-------o||-||o-0---------------------------|
E|---------------------------||-||----------------------3-------|

 | Gtr II
e|---------------------------||-||------------------------------|
B|--------------------------o||-||o-----7b8r7-5-----5-----7b8r==|
G|---------------------------||-||------7b8r7-5-----5-----7b8r==|
D|---------------------------||-||--------------7---------------|
A|--------------------------o||-||o-----------------------------|
E|---------------------------||-||------------------------------|

   D              Am
e|----------0h2---0-0-0------------||
B|-0h3-x----3-------1-1---1-1-1---o||
G|-0h2-x----2-------------2-2-2----||
D|-0----------------------2-2-2----||
A|----------------------0---------o||
E|---------------------------------||
|
e|---------------------------------||
B|-----7b8r=7-5-----5-------------o||
G|-----7b8r=7-5-----5--------------||
D|--------------7---------7--------||
A|--------------------------------o||
E|---------------------------------||


[Outro-Solo]
                       G                   D               Am
Gtr I
e|---------------------------------------|-----------0h2---0--0--0----------|
B|---------1-----1-1---------0---------0-|-0h3-x-----3--------1--1---1--1-1-|
G|-0h2-----2-----2-2----0----0---------0-|-0h2-x-----2---------------2--2-2-|
D|-0h2-----2-----2-2---------0---------0-|-0-------------------------2--2-2-|
A|-0-------------------------------------|-------------------------0--------|
E|-------------------------3-------------|----------------------------------|

Gtr II
e|---------------------------------------|----------------------------------|
B|-----7b8r7-5-----5---------7b8r========|=====7b8r==7-5------5-------------|
G|-----7b8r7-5-----5---------7b8r========|=====7b8r==7-5------5-------------|
D|-------------7-------------------------|---------------7-----------7------|
A|---------------------------------------|----------------------------------|
E|---------------------------------------|----------------------------------|

Gtr III
                                                           ~~~~~~
e|-5---5---5---5-----------5---------5---|-5---5---------5------------------|
B|---5-------------8b9r(8)---8b9r(8)---8-|---8-----8-8-----8-(8)----------8-|
G|---------------------------------------|-----------------------------/9---|
D|---------------------------------------|----------------------------------|
A|---------------------------------------|----------------------------------|
E|---------------------------------------|----------------------------------|

                              G
e|----------------------------------------------|
B|--------------1---------1-1--------0---0------|
G|--0h=2--------2---------2-2-0------0---0------|
D|--0h=2--------2---------2-2--------0---0------|
A|--0-------------------------------------------|
E|-------------------------------3--------------|
|
e|----------------------------------------------|
B|--------7b8r==7---5-------5--------7b8r=======|
G|--------7b8r==7---5-------5--------7b8r=======|
D|---------------------7------------------------|
A|----------------------------------------------|
E|----------------------------------------------|

 |        ~~~~~~~~~
e|--------------------------8-------------------|
B|-(8)-8s10---(10)-10-10-10-----10-(10)----10\--|
G|----------------------------------------------|
D|----------------------------------------------|
A|----------------------------------------------|
E|----------------------------------------------|

   D                Am                                  G
e|------------0h2---0-0-0-----------|---------------------------|
B|--0h3-x-----3-------1-1---1---1-1-|---------1-----1-1-----0-0-|
G|--0h2-x-----2-------------2---2-2-|-0h2-----2-----2-2-0---0-0-|
D|--0-----------------------2---2-2-|-0h2-----2-----2-2-----0-0-|
A|------------------------0---------|-0-------------------------|
E|----------------------------------|---------------------3-----|

e|----------------------------------|---------------------------|
B|------7b8r==7-5-----5-----7b8r====|=====7b8r7-5-----5---------|
G|------7b8r==7-5-----5-----7b8r====|=====7b8r7-5-----5---------|
D|----------------7-----------------|-------------7---------7---|
A|----------------------------------|---------------------------|
E|----------------------------------|---------------------------|

                          ~~~~~~~
e|----------------------------------|---------------------------|
B|------8-----8---------------------|---------------------------|
G|-/9-------9---9-7s5-5-------------|---------------------------|
D|------------------------7-7---7-7-|-7-------7-7-7---7---7-7---|
A|----------------------------------|-----0---0-0-0---0---0-0---|
E|----------------------------------|---------------------------|

   D              Am
e|----------0h2---0--0--0-------------|
B|-0h3-x----3--------1--1---1---1-1---|
G|-0h2-x----2---------------2---2-2---|
D|-0------------------------2---2-2---|
A|------------------------0-----------|
E|------------------------------------|
|
e|------------------------------------|
B|-----7b8r=7-5------5------7b8r======|
G|-----7b8r=7-5------5------7b8r======|
D|--------------7---------------------|
A|------------------------------------|
E|------------------------------------|
|
e|------------------------------------|
B|------------------------------------|
G|--------------5---(5)---------------|
D|-7---7----7-7---------7-7-7---5h7---|
A|-0---0----0-0-----------------------|
E|------------------------------------|

                     G           D               Am
e|-----------------------------|-----------0h2---0-0-0--------------*|
B|---------1-----1-1-----0---0-|-0h3-x-----3-------1-1---1---1-1----*|
G|-0h2-----2-----2-2-0---0---0-|-0h2-x-----2-------------2---2-2----*|
D|-0h2-----2-----2-2-----0---0-|-0-----------------------2---2-2----*|
A|-0---------------------------|-----------------------0------------*|
E|---------------------3-------|------------------------------------*|
|
e|-----------------------------|------------------------------------*|
B|-----7b8r7-5-----5-----------|-----7b8r==7-5-----5-----7b8r=======*|
G|-----7b8r7-5-----5-----------|-----7b8r==7-5-----5-----7b8r=======*|
D|-------------7---------7-----|---------------7--------------------*|
A|-----------------------------|------------------------------------*|
E|-----------------------------|------------------------------------*|

 | TP
e|-----------------------------|------------------------------------*|
B|-----------------------------|------------------------------------*|
G|-----------------------------|-----------------------------5------*|
D|-----------------5h7---5h7---|-5h7-7---7-7---5---5h7-7-7-----7----*|
A|-0---------------0-----0-----|-0---0---0---7----------------------*|
E|-----------------------------|-----------------8------------------*|


Tablature Legend
**********************************************************************

 h   - hammer-on
 p   - pull-off
 b   - bend
 pb  - pre-bend
 r   - bend release (if no number after the r, then release immediately)
 /\  - slide into or out of (from/to "nowhere")
 s   - legato slide
 S   - shift slide
  - natural harmonic
[n]  - artificial harmonic
n(n) - tapped harmonic
 ~   - vibrato
 tr  - trill
 T   - tap
 TP  - trem. picking
 PM  - palm muting
 =   - hold bend; also acts as connecting device for hammers/pulls
 <>  - volume swell (louder/softer)
 x   - on rhythm slash represents muted slash
 o   - on rhythm slash represents single note slash

**********************************************************************
comments
print report bad tab
42 comments total. Showing first comments.
0 reply
sleepyguitar 45 wrote on January 18 2003, 12:00 am

great tab, man. love playing the mellow tunes.

+2 reply
skynyrd1515 216 wrote on June 6 2003, 12:00 am

there shouldn't be a capo, but other than that it's great.

0 reply
extrememan 10 wrote on March 19 2004, 12:00 am

good one looks complicated though

I want to post or [tab]
guest
You may want to rate the tab now too:
select rating
Please do not post tabs as comments. Select "correction" instead!