Oops, an error
Loading. Please wait.

Mary Janes Last Dance Bass Tab

version 2
version 2

Whole song

Interactive

10,808 views 27 this week
1 commentread comment
1 2 3 4 5
please rate
add to favorites
launch autoscroll
font size
0
reset
guitar tuner
Tab Pro tools
  • play this tab
  • loop segment
  • change instrument
  • show fretboard
  • metronome
×
Best way to learn
"Mary Janes Last Dance"
Autoscroll
slow
fast
+/-
esc
set tempo
stop
Contributor
----------------------------------------------------------------------------
		     "MARY JANE'S LAST DANCE" - Tom Petty
----------------------------------------------------------------------------

Tabbed By : Superkisseler

Tuning:Standard

H = Hammer On

INTRO:
The intro is all harmonics:

G|-----12----9------7----5-4-----9-----------------------------------------|
D|-12----------------------------------12----------------------------------|
A|-------------------------------------------------------------------------|
E|-------------------------------------------------------------------------|


VERSE:

G|-------------------------------------------------------------------------|
D|-------------------------------------------------------------------------|
A|-----3-------3-----------------------------------------------------------|
E|--5--------------3-3-----------------------------------------------------|

CHORUS:


G|-------------------------------------------------------------------------|
D|-------------------------------------------------------------------------|
A|-------------------------------------------------------------------------|
E|-3---5--7---7H9---9H11---11H13------3----5----7----3---------------------|

AND THAT'S ALL...
comments
We did not receive enough feedback on this tab! Please rate:
print report bad tab
1 2 3 4 5
1 comment total.
+2 reply
Combat Rocker wrote on April 20 2013, 09:38 pm

No offense, but this tab sucks. Really bad.

I want to post or [tab]
guest
You may want to rate the tab now too:
select rating
Please do not post tabs as comments. Select "correction" instead!