Oops, an error
Loading. Please wait.

Running Down A Dream Chords

version 2
version 2

Whole song

Interactive

18,743 views 345 this week
3 commentsread comments
1 2 3 4 5
excellent!
x 8
add to favorites
launch autoscroll
font size
0
reset
transpose
0
reset
simplify chords
display chords
guitar tuner
Tab Pro tools
  • play this tab
  • loop segment
  • change instrument
  • show fretboard
  • metronome
×
Best way to learn
"Running Down A Dream"
Autoscroll
slow
fast
+/-
esc
set tempo
stop
Contributor
Difficulty
intermediate
---------------------------------------------------------------------------
                Running Down a Dream – Tom Petty
---------------------------------------------------------------------------
Tabbed by: maguri
Tuning: Standard

Tom Petty 
Running Down a Dream (1989)
(Tom Petty/Jeff Lynne/Mike Campbell)

From: "Full Moon Fever"

---------------------------------------------------------------------------

RIFF
  E                E
  1 + 2 + 3 + 4 +  1 + 2 + 3 + 4 +  
e|----------------|----------------|
B|----------------|----------------|
G|----------------|----------------|
D|----------------|----------------|
A|----------------|----------------|
E|--0-7-0-6-0-5-0-b3-0-------------|

  Cmaj7                             Asus2/D
  1 + 2 + 3 + 4 +  1 + 2 + 3 + 4 +  1 + 2 + 3 + 4 +  1 + 2 + 3 + 4 +
e|----------------|----------------|----------------|----------------|
B|----------------|----------------|----------------|----------------|
G|----------------|----------------|----------------|----------------|
D|----------------|----------------|----------------|----------------|
A|----------------|----------------|----------------|----------------|
Eb3-0-------------|--0-7-0-6-0-5-0-b3-0-------------|----------------|

---------------------------------------------------------------------------
CHORDS

         E-A-D-G-B-e
Dsus2    x-x-0-2-3-0
D5       x-x-0-2-3-x
G        3-x-0-0-3-x
Cmaj7    x-3-2-0-0-0
Asus2/D  x-x-0-2-0-0 = Dsus2(add13)

---------------------------------------------------------------------------

INTRO
| E | % | % | % |
| E | % | % | % |


VERSE
         E                  E
It was a beautiful day, the sun beat down
          Dsus2          | E | % |
I had the radio on, I was drivin'
E                     E       
Trees flew by, me and Del were singin' 
        Dsus2            E
“Little Runaway” - I was flyin'


CHORUS
      D5      G      E
Yeah, runnin' down a dream
     E           G       A
That never would come to me
D5           G    E
Workin' on a mystery
E         G       A 
Goin' wherever it leads
A       G      E
Runnin' down a dream


INTERLUDE
| E | % | % | % |


VERSE
  E                 E
I felt so good like anything was possible
      Dsus2                       | E | % |
I hit cruise control and rubbed my eyes
    E                   E
The last three days the rain was unstoppable
       Dsus2             | E | % |
It was always cold, no sunshine


CHORUS
      D5      G      E
Yeah, runnin' down a dream
     E           G       A
That never would come to me
D5           G    E
Workin' on a mystery
E         G       A 
Goin' wherever it leads
A       G      E
Runnin' down a dream


INTERLUDE
| E | % | % | % |
| Cmaj7 | % | Asus2/D | % |
| E | % | 
| Cmaj7 | % | Asus2/D | % |


VERSE
E                  E
I rolled on as the sky grew dark
          Dsus2                  | E | % |
I put the pedal down to make some time
        E                      E
There's something good waitin' down this road
    Dsus2                | E | % |
I'm pickin' up whatever's mine


CHORUS
      D5      G      E
Yeah, runnin' down a dream
     E           G       A
That never would come to me
D5           G    E
Workin' on a mystery
E         G       A 
Goin' wherever it leads
A       G     | E | % | % | % |
Runnin' down a dream


CHORUS
      D5      G      E
Yeah, runnin' down a dream
     E           G       A
That never would come to me
D5           G    E
Workin' on a mystery
E         G       A 
Goin' wherever it leads
A       G     | E | % | % | % |
Runnin' down a dream


CODA (solo)
| E | % | 

| Cmaj7 | % | Asus2/D | % |
| E | % | % | % |
| Cmaj7 | % | Asus2/D | % |
| E | % | % | % |

(repeat and fade)


comments
print report bad tab
3 comments total.
+1 reply
DanLetts91 wrote on May 11 2015, 03:31 pm

Nice tab man!
I think the intro also sounds good like this
E |------------0------|
B |------------0------|
G |------------1------|
D |------------2------|
A |--2-1-0-----2------|
E |-0-0-0-0-3--0------|

0 reply
maguri wrote on May 11 2015, 04:04 pm

Thank you! You're right, that is another option of playing it.

0 reply
rautakallio wrote on February 7 2016, 12:15 am

Awesome! Love the chords in the interlude & coda.

I want to post or [tab]
guest
You may want to rate the tab now too:
select rating
Please do not post tabs as comments. Select "correction" instead!