Oops, an error
Loading. Please wait.

Saving Grace Bass Tab

3,647 views 3 this week
1 commentread comment
1 2 3 4 5
x 3
add to favorites
launch autoscroll
font size
0
reset
guitar tuner
Autoscroll
slow
fast
+/-
esc
set tempo
stop
Help us to improve Ultimate-Guitar.com Take our survey!
×
Author
Difficulty
novice
Main riff:

G| ------------------------------------------|
D| ------------------------------------------|
A| ------------------------------------------|
E| 00-0-0-0-0-0h3-0h3p0-00-0-0-0-0-0h3-0h3p0-|


And it's hard to say... who you are these days....

G| ------------------------------------------------|
D| ------------------------------------------------|
A| 0-0-0-0-0-0-0-0-0-0-0-0-0-0-0-0-0-0-0-0-0-0-0-0-|
E| ------------------------------------------------|


You keep running for another place... just to find that saving grace....

G| ---------------------|
D| ---------------------|
A| --------2-3-4-5~-----|
E| 3~----3--------------|


Back to main riff

Then this:

G| -------------------------------------------|
D| -------------------------------------------|
A| -------------------------------------------|
E| 00-6h7-5-3-00-6h7-5-3-00-6h7-5-3-55555555--|


G| -------------------------------------------|
D| -------------------------------------------|
A| -------------------------------------------|
E| 00-6h7-5-3-00-6h7-5-3-00-6h7-5-3-5*-7*-----|

*Play each of these to the rhythm, in 16th notes, or just let each one ring, both will sound fine.


Song ends on this:

G| -------------------------------------------|
D| -------------------------------------------|
A| -------------------------------------------|
E| 00-6h7-5-3-00-6h7-5-3-00-6h7-5-3-0~--------|

Those are all the parts, the order is very easy if you play along with the song.
Suggest correction
Give kudos to tab author, rate the tab!
1 2 3 4 5
comments
print report bad tab
1 comment total.
0 reply
Denway 10 Jan 27, 2014 06:32 PM

Well done!

guest
You may want to rate the tab now too:
select rating
Wanna post a correction for this tab? Suggest correction