Oops, an error
Loading. Please wait.

Saving Grace Tab

8,973 views 18 this week
1 commentread comment
1 2 3 4 5
accurate
x 4
add to favorites
launch autoscroll
font size
0
reset
how to read this tab
guitar tuner
Tab Pro tools
  • play this tab
  • loop segment
  • change instrument
  • show fretboard
  • metronome
Autoscroll
slow
fast
+/-
esc
set tempo
stop
Contributor
Difficulty
novice
	I'm passing sleeping cities ...

    { all strums muted }
E:-------------------------------------------------------|
B:-------------------------------------------------------|
G:-------------------------------------------------------|
D:--2--2--2--2--2--2--2--2--2--2--2--2--2--2--2--2-------|
A:--2--2--2--2--2--2--2--2--2--2--2--2--2--2--2--2-------|
E:--0--0--0--0--0--0--0--0--0--0--0--0--3--0--3--0-------|

	It's hard to say who you are these days ...

	{  free strums  }
E:----------------------------------------------------------|
B:---2--2--2------------------------------------------------|
G:---2--2--2--- etc ----------------------------------------|
D:---2--2--2------------------------------------------------|
A:---0--0--0------------------------------------------------|
E:----------------------------------------------------------|

	Don't you baby ...

    { all strums muted }
E:-------------------------------------------------------|
B:-------------------------------------------------------|
G:-------------------------------------------------------|
D:--2--2--2--2--2--2--2--2--2--2--2--2--2--2--2--2-------| x2
A:--2--2--2--2--2--2--2--2--2--2--2--2--2--2--2--2-------|
E:--0--0--0--0--0--0--0--0--0--0--0--0--3--0--3--0-------|

	You keep running for another place
					To find that saving grace ...

E:--3--3--3-3---------3--3--3-3------------------------|
B:--3--3--3-3---------2--2--2-2------------------------|
G:--0--0--0-0---------3--3--3-3---etc------------------|
D:--0--0--0-0-etc-----0--0--0-0------------------------|
A:--2--2--2-2------------------------------------------|
E:--3--3--3-3------------------------------------------|

	Oh..

E:--------------------------------------------------------------------------|
B:--------------------------------------------------------------------------|
G:-------3--2------------3--2-----------3--2-----2--2--2-2------------------|
D:--2-2--3--2--5--2-2-2--3--2--5--2--2--3--2--5--2--2--2-2------------------|
A:--2-2--1--0--5--2-2-2--1--0--5--2--2--1--0--5--0--0--0-0------------------|
E:--0-0--------3--0-0-0--------3--0--0--------3-----------------------------|

E:-----------------------------------------------|
B:-----------------------------------------------|
G:-------3--2------------3--2-----------3--2-----|
D:--2-2--3--2--5--2-2-2--3--2--5--2--2--3--2--5--|
A:--2-2--1--0--5--2-2-2--1--0--5--2--2--1--0--5--|
E:--0-0--------3--0-0-0--------3--0--0--------3--|

	Bridge
E:-----------------------------------------------|
B:-2-2--3-2-3-2--3-2-3-2--4-4--5-4-5-4--5-4-5-4--|
G:-2-2--2-2-2-2--2-2-2-2--4-4--4-4-4-4--4-4-4-4--|
D:-2-2--2-2-2-2--2-2-2-2--4-4--4-4-4-4--4-4-4-4--|
A:-----------------------------------------------|
E:-----------------------------------------------|

	You're rolling up the carpet ...
E:-------------------------------------------------------|
B:-------------------------------------------------------|
G:-------------------------------------------------------|
D:--2--2--2--2--2--2--2--2--2--2--2--2--2--2--2--2-------|
A:--2--2--2--2--2--2--2--2--2--2--2--2--2--2--2--2-------|
E:--0--0--0--0--0--0--0--0--0--0--0--0--3--0--3--0-------|

	Outro
E:----------------------------------------------------------|
B:----------------------------------------------------------|
G:-------3--2------------3--2-----------3--2----------------|
D:--2-2--3--2--5--2-2-2--3--2--5--2--2--3--2--5--2----------|
A:--2-2--1--0--5--2-2-2--1--0--5--2--2--1--0--5--2----------|
E:--0-0--------3--0-0-0--------3--0--0--------3--0----------|
comments
print report bad tab
1 comment total.
-1 reply
Sloopy wrote on January 10 2007, 09:27 pm

Yes exactly what I've beenn looking for!

I want to post or [tab]
guest
You may want to rate the tab now too:
select rating
Please do not post tabs as comments. Select "correction" instead!