Oops, an error
Loading. Please wait.

Stop Draggin My Heart Around Bass

version 1
version 1

Whole song

Interactive

9,276 views 24 this week
3 commentsread comments
1 2 3 4 5
x 4
add to favorites
launch autoscroll
font size
0
reset
guitar tuner
×
Best way to learn
"Stop Draggin My Heart Around"
Autoscroll
slow
fast
+/-
esc
set tempo
stop
Difficulty
novice
intro & verse
----------------------|
----------------------|
-----------------0----|
--0000000--33333---33-|


chorus
-----------------------------------|
--------0000000--------00000000----|    x? i'm not sure
--333333-------33333333------------|
-----------------------------------|
end of chorus
-----------------|
-----------------|
-3---3-----------|
---3----00000000-|


instrumental bit
--------------------|
-0---------0--------|
----3---------3-----|
--------3-------3---|

----------------------|
----------------------|
--3----3----000000000-|
----3-----------------|

anyway its something like that u might have to change it up a bit
thx no credit required
Suggest correction
comments
print report bad tab
3 comments total.
0 reply
scamptoo 10 Dec 22, 2013 02:20 PM

These tabs don't jive with what I am seeing the bass player for Tom Petty doing on YouTube, nor what I am hearing.

A more accurate tutorial can be seen on YouTube at the following link
http://www.youtube.com/watch?v=xX2wEuErhks

0 reply
zacmac2112 10 Jan 17, 2016 02:35 PM

Wrong chords and wrong pattern and wrong notes. Tabbed did not listen to the song

0 reply
shawn50 10 Jan 22, 2017 10:03 PM

thanks Scamptoo... the linked helped.

guest
You may want to rate the tab now too:
select rating
Wanna post a correction for this tab? Suggest correction