Oops, an error
Loading. Please wait.

The Waiting Chords

version 2
version 2

Whole song

Interactive

74,073 views 540 this week
2 commentsread comments
1 2 3 4 5
excellent!
x 42
add to favorites
launch autoscroll
font size
0
reset
transpose
0
reset
simplify chords
display chords
guitar tuner
Tab Pro tools
  • play this tab
  • loop segment
  • change instrument
  • show fretboard
  • metronome
×
Best way to learn
"The Waiting"
Autoscroll
slow
fast
+/-
esc
set tempo
stop
Contributor
Intro: Repeat 4x
e|-----3-3------------------2---2-2-2----------------------------------------|
B|-----3-3--3---3-3-3-3-3-3-3---3-3-3----------------------------------------|
G|-----0-0--2---2-2-2-2-2-2-2---2-2-2----------------------------------------|
D|-----0-0--0---0-0-0-2-2-2-0---0-0-0----------------------------------------|
A|--------------------0-0-0--------------------------------------------------|
E|-2-3------2---2-2-2--------------------------------------------------------|


   A                       G            D
Oh baby don't it feel like heaven right now
         A                          G       D
Don't it feel like somethin' from a dream
     A                        G          D
Yeah I've never known nothing quite like this
         Bm            
Don't it feel like tonight might never be again
G
We know better than to try and pretend
A
Baby no one could have ever told me 'bout this
A
I said "Hey yeah" , "Heyee yeahee yeahee yeah"

    G   D/F#       Asus4   D
The waiting is the hardest part
 G    D/F#        Asus4    D
Every day you see one more card
    G          D/F#       Asus4          D
You take it on faith, you take it to the heart
    G   D/F#       Asus4   D
The waiting is the hardest part


     A                                    G       D
Well yeah I might have chased a couple of women around
A                      G       D
All it ever got me was down
A                          G            D
Then there were those that made me feel good
    Bm 
But never as good as I feel right now
     G                        
Baby you're the only one that's ever known how
   A
To make me wanna live like I wanna live now
A
I said "Hey yeah" , "Heyee yeahee yeahee yeah"

    G   D/F#       Asus4   D
The waiting is the hardest part
 G    D/F#        Asus4    D
Every day you get one more yard
    G          D/F#       Asus4          D
You take it on faith, you take it to the heart
    G   D/F#       Asus4   D
The waiting is the hardest part

Bm
Don't let it kill you baby, don't let it get to you
Bm
Don't let em kill you baby, don't let em get to you
A                            D
I'll be your bleedin' heart, I'll be your cryin' fool
G                         F#                      A
Don't let this go too far, don't let it get to you

Solo:

A
I said "Hey yeah" , "Heyee yeahee yeahee yeah"

    G   D/F#       Asus4   D
The waiting is the hardest part
 G    D/F#        Asus4    D
Every day you get one more yard
    G          D/F#       Asus4          D
You take it on faith, you take it to the heart
    G   D/F#       Asus4   D
The waiting is the hardest part
    G   D/F#       Asus4   D

    G   D/F#       Asus4   
The waiting is the hard----est 
 G   D/F#   Asus4   D      G   D/F#   Asus4   D
Part

Repeat theme from solo

e|---------------------------------------------------------------------------|
B|-10---10-12-10-8-7---------------------------------------------------------|
G|-------------------9--7----------------------------------------------------|
D|------------------------7--------------------------------------------------|
A|---------------------------------------------------------------------------|
E|---------------------------------------------------------------------------|

comments
print report bad tab
2 comments total.
0 reply
frankie mcgriff wrote on January 4 2015, 12:44 pm

nice!
thanks a bunch!

0 reply
patriotpizzaman wrote on January 7 2015, 08:38 am

:) Thanks.

I want to post or [tab]
guest
You may want to rate the tab now too:
select rating
Please do not post tabs as comments. Select "correction" instead!