Oops, an error
Loading. Please wait.

This Old Town Tab

962 views 1 this week
no commentswrite comment
1 2 3 4 5
3 more votes to show rating
add to favorites
launch autoscroll
font size
0
reset
how to read this tab
guitar tuner
Autoscroll
slow
fast
+/-
esc
set tempo
stop
Help us to improve Ultimate-Guitar.com Take our survey!
×
Difficulty
novice
Tom Petty
This Old Town
Highway Companion
Tabbed by: Jesse Modzelewski

This is a good song and I wonder why no one one has tabbed it yet.
This is my version and is not 100% accurate. I'm working on the rest of the song as 
Hope you like it.
Standard Tuning

...=Pamm Mute


 .....                .....              .....               ......
|-------------------|------------------|-------------------|----------------|
|-------------------|------------------|-------------------|----------------|
|--------3----------|----------1-------|----------1--------|---------1------|
|--------5----------|----------2-------|----------3--------|---------2------|
|--------5----------|----------2-------|----------3--------|---------2------|
|-3-3----3----------|--0--0----0-------|--1--1----1--------|--0-0----0------|

 .....                .....              .....
|-------------------|------------------|-------------------|----------------|
|-------------------|------------------|-------------------|----------------|
|---------5---------|----------2-------|----------3--------|----------------|
|---------7---------|----------4-------|----------5--------|----------------|
|---------7---------|----------2-------|----------5--------|----------------|
|-5--5----5---------|--2--2----2-------|--3--3----3--------|----------------|
Suggest correction
Give kudos to tab author, rate the tab!
1 2 3 4 5
comments
print report bad tab
guest
You may want to rate the tab now too:
select rating
Wanna post a correction for this tab? Suggest correction