Oops, an error
Loading. Please wait.

Wild One Forever Tab

version 1
version 1

Whole song

7,317 views 9 this week
2 commentsread comments
1 2 3 4 5
accurate
x 4
add to favorites
launch autoscroll
font size
0
reset
how to read this tab
guitar tuner
Tab Pro tools
  • play this tab
  • loop segment
  • change instrument
  • show fretboard
  • metronome
×
Best way to learn
"Wild One Forever"
Autoscroll
slow
fast
+/-
esc
set tempo
stop
Contributor
sirshoelace@gmail.com


Dsus(Dsus4) - x00233
D           - x00232
C           - x32010
G           - 320003
Bm          - 224432



this song is played with two guitars, one playing the chords, and one 
fingerpicking them out. the fingerpicking guitar plays over the rhythm
during the verse, then goes away during the chorus. the verse goes like
this together, and the rest is easy to figure out if you listen to it.

//verse:

|------3-------0---|-----3-------0-----|-----3-------0---|-----0-------0---|
|----3---3---3---3-|---3---3---3---3---|---3---3---3---3-|---1---1---1---1-|
|--2-------2-------|-2-------2-------2-|-2-------2-------|-0-------0-------|
|------------------|-------------------|-----------------|-----------------|
|------------------|-------------------|-----------------|-----------------|
|------------------|-------------------|-----------------|-----------------|
|
|  Dsus    D         Dsus    D           Dsus    D         C
|--3-------2-------|-3-------2---------|-3-------2-------|-1---------------|
|--3-------3-------|-3-------3---------|-3-------3-------|-0---------------|
|--2-------2-------|-2-------2---------|-2-------2-------|-2---------------|
|--0-------0-------|-0-------0---------|-0-------0-------|-3---------------|
|--0-------0-------|-0-------0---------|-0-------0-------|-0---------------|
|------------------|-------------------|-----------------|-----------------|



         Dsus D           Dsus D
Well the moon sank as the wind blew
    Dsus   D             C
The street lights slowly died
                  Dsus D         Dsus           D
They call you the wild one, said stay 'way from her
     Dsus           D             C
Said she could love no one if she tried


         C           G           D
But then somethin' I saw In your eyes 
                        C              G          D
told me right away That you were gonna have to be mine 
                           C         G          D
When the strangest feeling came over me Down inside
                             C                                         
no matter what it takes I'll never get over how good it felt 
         Bm                                              
When you finally held m e I'll never regret
     A
Baby those few hours Will grow       in my head Forever
                          (linger on)







Well it's too bad, but I want you
To know I understand
Yeah, it's been a long time but I don't mind
Yeah, it's all right I understand

Beca use somethin' I saw
In your eyes told me right away
That you were gonna have to be mine
When the strangest feeling came over me
Down inside I knew right away
I'll never get over how good it felt
When you finally kissed me
I'll never regret
Baby those few hours
Will linger on in my head
Forever
comments
print report bad tab
2 comments total.
0 reply
toddean wrote on November 15 2006, 12:53 pm

the lyrics are almost perfect, but where you have the word "grow" the correct word is "linger on"...in my head, forever"

0 reply
Sir-Shoelace wrote on November 15 2006, 05:36 pm

i'll fix that. (and that space in the middle of "because" lol)

I want to post or [tab]
guest
You may want to rate the tab now too:
select rating
Please do not post tabs as comments. Select "correction" instead!