Oops, an error
Loading. Please wait.

Yer So Bad tab

version 2
version 2

Whole song

Interactive

175 views 3 this week
no commentswrite comment
1 2 3 4 5
3 more votes to show rating
add to favorites
×
Save as Personal and add changes to this tab that will be seen only by you. Learn more ›
×
You can save this tab as Personal to edit and correct it or add notes. All changes will be seen only by you. Learn more »
launch autoscroll
font size
0
reset
how to read this tab
guitar tuner
edit
Autoscroll
slow
fast
+/-
esc
set tempo
stop
Author
Difficulty
YER SO BAD

As recorded by Tom Petty
(From the 1989 Album FULL MOON FEVER)

Words and Music by Tom Petty & Jeff Lynne

Transcribed by Slowhand


Gtr I (E A D G B E) - 'Tom Petty - Acoustic Guitar'
Gtr II (E A D G B E) - 'Mike Campbell - Electric 12-string Guitar '
Gtr III (E A D G B E) - 'Mike Campbell - Mandolin '


 Intro
  H=88(8=s8)
  Am
 4/4
  Gtr I (Ac. 12-string Gtr.)
  Q  Q  E E E E    Q   Q  E E E E    Q   Q  E E E E    Q   Q  E E E E
|-0--0--0-0-0-0-|--0---0--0-0-0-0-|--0---0--0-0-0-0-|--0---0--0-0-0-0--||
|-1--1--1-1-1-1-|--1---1--1-1-1-1-|--1---1--1-1-1-1-|--1---1--1-1-1-1--||
|-2--2--2-2-2-2-|--2---2--2-2-2-2-|--2---2--2-2-2-2-|--2---2--2-2-2-2--||
|-2--2--2-2-2-2-|--2---2--2-2-2-2-|--2---2--2-2-2-2-|--2---2--2-2-2-2--||
|-0--0--0-0-0-0-|--0---0--0-0-0-0-|--0---0--0-0-0-0-|--0---0--0-0-0-0--||
|---------------|-----------------|-----------------|------------------||
|
| Gtr II (El. 12-string Gtr.)
| W               +W                +W                +W
|-0-------------|-(0)-------------|-(0)-------------|-(0)--------------||
|-1-------------|-(1)-------------|-(1)-------------|-(1)--------------||
|-2-------------|-(2)-------------|-(2)-------------|-(2)--------------||
|-2-------------|-(2)-------------|-(2)-------------|-(2)--------------||
|-0-------------|-(0)-------------|-(0)-------------|-(0)--------------||
|---------------|-----------------|-----------------|------------------||


   1st & 2nd Verses
    Am              D9/F#           G               Am
    Q  Q  E E E E   Q  Q  E E E E   Q  Q  E E E E   Q  Q  E E E E
||--0--0--0-0-0-0-|-0--0--0-0-0-0-|-3--3--3-3-3-3-|-0--0--0-0-0-0--|
||o-1--1--1-1-1-1-|-1--1--1-1-1-1-|-0--0--0-0-0-0-|-1--1--1-1-1-1--|
||--2--2--2-2-2-2-|-2--2--2-2-2-2-|-0--0--0-0-0-0-|-2--2--2-2-2-2--|
||--2--2--2-2-2-2-|-0--0--0-0-0-0-|-0--0--0-0-0-0-|-2--2--2-2-2-2--|
||o-0--0--0-0-0-0-|---------------|---------------|-0--0--0-0-0-0--|
||----------------|-2--2--2-2-2-2-|-3--3--3-3-3-3-|----------------|


                  D9/F#           G6
  Q  Q  E E E E   Q  Q  E E E E   Q  Q  E E E E   Q  Q  E E E E
|-0--0--0-0-0-0-|-0--0--0-0-0-0-|-0--0--0-0-0-0-|-0--0--0-0-0-0-|
|-1--1--1-1-1-1-|-1--1--1-1-1-1-|-0--0--0-0-0-0-|-0--0--0-0-0-0-|
|-2--2--2-2-2-2-|-2--2--2-2-2-2-|-0--0--0-0-0-0-|-0--0--0-0-0-0-|
|-2--2--2-2-2-2-|-0--0--0-0-0-0-|-0--0--0-0-0-0-|-0--0--0-0-0-0-|
|-0--0--0-0-0-0-|---------------|---------------|---------------|
|---------------|-2--2--2-2-2-2-|-3--3--3-3-3-3-|-3--3--3-3-3-3-|


  Am              D9/F#           G               Am
  Q  Q  E E E E   Q  Q  E E E E   Q  Q  E E E E   Q  Q  E E E E
|-0--0--0-0-0-0-|-0--0--0-0-0-0-|-3--3--3-3-3-3-|-0--0--0-0-0-0-|
|-1--1--1-1-1-1-|-1--1--1-1-1-1-|-0--0--0-0-0-0-|-1--1--1-1-1-1-|
|-2--2--2-2-2-2-|-2--2--2-2-2-2-|-0--0--0-0-0-0-|-2--2--2-2-2-2-|
|-2--2--2-2-2-2-|-0--0--0-0-0-0-|-0--0--0-0-0-0-|-2--2--2-2-2-2-|
|-0--0--0-0-0-0-|---------------|---------------|-0--0--0-0-0-0-|
|---------------|-2--2--2-2-2-2-|-3--3--3-3-3-3-|---------------|


                  D9/F#           G6
  Q  Q  E E E E   Q  Q  E E E E   Q  Q  E E E E   Q  Q  E E E E
|-0--0--0-0-0-0-|-0--0--0-0-0-0-|-0--0--0-0-0-0-|-0--0--0-0-0-0-||
|-1--1--1-1-1-1-|-1--1--1-1-1-1-|-0--0--0-0-0-0-|-0--0--0-0-0-0-||
|-2--2--2-2-2-2-|-2--2--2-2-2-2-|-0--0--0-0-0-0-|-0--0--0-0-0-0-||
|-2--2--2-2-2-2-|-0--0--0-0-0-0-|-0--0--0-0-0-0-|-0--0--0-0-0-0-||
|-0--0--0-0-0-0-|---------------|---------------|---------------||
|---------------|-2--2--2-2-2-2-|-3--3--3-3-3-3-|-3--3--3-3-3-3-||


 Pre-Chorus
  $
  Em              C               G               D
  Q  Q  E E E E   Q  Q  E E E E   Q  Q  E E E E   Q  Q  E E E E
|-0--0--0-0-0-0-|-0--0--0-0-0-0-|-3--3--3-3-3-3-|-2--2--2-2-2-2-|
|-0--0--0-0-0-0-|-1--1--1-1-1-1-|-0--0--0-0-0-0-|-3--3--3-3-3-3-|
|-0--0--0-0-0-0-|-0--0--0-0-0-0-|-0--0--0-0-0-0-|-2--2--2-2-2-2-|
|-2--2--2-2-2-2-|-2--2--2-2-2-2-|-0--0--0-0-0-0-|-0--0--0-0-0-0-|
|-2--2--2-2-2-2-|-3--3--3-3-3-3-|---------------|---------------|
|-0--0--0-0-0-0-|---------------|-3--3--3-3-3-3-|---------------|
|
| Gtr II
| W               W               W               W
|-0-------------|---------------|---------------|---------------|
|-0-------------|-1-------------|-0-------------|-3-------------|
|-0-------------|-0-------------|-0-------------|-2-------------|
|-2-------------|-2-------------|-0-------------|-0-------------|
|-2-------------|-3-------------|---------------|---------------|
|-0-------------|---------------|-3-------------|---------------|


  Em              C               G               D
  Q  Q  E E E E   Q  Q  E E E E   Q  Q  E E E E   Q   Q  E E  E  E
|-0--0--0-0-0-0-|-0--0--0-0-0-0-|-3--3--3-3-3-3-|-2---2--2-2--2--2-|
|-0--0--0-0-0-0-|-1--1--1-1-1-1-|-0--0--0-0-0-0-|-3---3--3-3--3--3-|
|-0--0--0-0-0-0-|-0--0--0-0-0-0-|-0--0--0-0-0-0-|-2---2--2-2--2--2-|
|-2--2--2-2-2-2-|-2--2--2-2-2-2-|-0--0--0-0-0-0-|-0---0--0-0--0--0-|
|-2--2--2-2-2-2-|-3--3--3-3-3-3-|---------------|------------------|
|-0--0--0-0-0-0-|---------------|-3--3--3-3-3-3-|------------------|
|
| W               W               W               H.         +E  E
|-0-------------|---------------|---------------|------------------|
|-0-------------|-1-------------|-0-------------|-3----------(3)---|
|-0-------------|-0-------------|-0-------------|-0----------(0)---|
|-2-------------|-2-------------|-0-------------|-4----------(4)---|
|-2-------------|-3-------------|---------------|-5----------(5)-5-|
|-0-------------|---------------|-3-------------|------------------|


                      Chorus
                       G     D
  Q   Q    E  E E E    Q  Q  Q  E E
|-2---2----2--2-2-2-||-3--3--2--2-2-|
|-3---3----3--3-3-3-||-0--0--3--3-3-|
|-2---2----2--2-2-2-||-0--0--2--2-2-|
|-0---0----0--0-0-0-||-0--0--0--0-0-|
|-------------------||--------------|
|-------------------||-3--3---------|
|
| E Q   E +Q    E E    H     H
|-------------------||-3------------|
|-------3-(3)-------||-0-----3------|
|---0-----------0-0-||-0-----0------|
|-4-----------------||-------4------|
|-------------------||-------5------|
|-------------------||--------------|
|
| Gtr III (Mandolin arr. for Gtr.)
| W                    W
|-------------------||--------------|
|-------------------||--------------|
|-------------------||--------------|
|-------------------||--------------|
|-------------------||--------------|
|-------------------||--------------|


  C
  Q  Q  E  E  E  E    Q      Q      E   E  E  E
|-0--0--0--0--0--0-|--0------0------0---0--0--0-|
|-1--1--1--1--1--1-|--1------1------1---1--1--1-|
|-0--0--0--0--0--0-|--0------0------0---0--0--0-|
|-2--2--2--2--2--2-|--2------2------2---2--2--2-|
|-3--3--3--3--3--3-|--3------3------3---3--3--3-|
|------------------|----------------------------|
|
| W                  +W
|-3----------------|-(3)------------------------|
|-1----------------|-(1)------------------------|
|-0----------------|-(0)------------------------|
|------------------|----------------------------|
|------------------|----------------------------|
|------------------|----------------------------|
|
| H     E  E  E  E    E   E  E  E  +E   E  E  E
|----------0--0--0-|--0---0--0--0--(0)--0--0--0-|
|---------17-17-17-|-17--17-17-17-(17)-17-17-17-|
|----------0--0--0-|--0---0--0--0--(0)--0--0--0-|
|---------17-17-17-|-17--17-17-17-(17)-17-17-17-|
|---------15-15-15-|-15--15-15-15-(15)-15-15-15-|
|------------------|----------------------------|


  G     D        C                                               G     D
  Q  Q  Q  E E   Q  Q  E  E  E  E    Q      Q      E   E  E  E   Q  Q  Q  E E
|-3--3--2--2-2-|-0--0--0--0--0--0-|--0------0------0---0--0--0-|-3--3--2--2-2-|
|-0--0--3--3-3-|-1--1--1--1--1--1-|--1------1------1---1--1--1-|-0--0--3--3-3-|
|-0--0--2--2-2-|-0--0--0--0--0--0-|--0------0------0---0--0--0-|-0--0--2--2-2-|
|-0--0--0--0-0-|-2--2--2--2--2--2-|--2------2------2---2--2--2-|-0--0--0--0-0-|
|--------------|-3--3--3--3--3--3-|--3------3------3---3--3--3-|--------------|
|-3--3---------|------------------|----------------------------|-3--3---------|
|
| H     H        W                  +W                           H     H
|-3------------|-3----------------|-(3)------------------------|-3------------|
|-0-----3------|-1----------------|-(1)------------------------|-0-----3------|
|-0-----0------|-0----------------|-(0)------------------------|-0-----0------|
|-------4------|------------------|----------------------------|-------4------|
|-------5------|------------------|----------------------------|-------5------|
|--------------|------------------|----------------------------|--------------|
|
| W              H     E  E  E  E    E   E  E  E  +E   E  E  E   W
|--------------|----------0--0--0-|--0---0--0--0--(0)--0--0--0-|--------------|
|--------------|---------17-17-17-|-17--17-17-17-(17)-17-17-17-|--------------|
|--------------|----------0--0--0-|--0---0--0--0--(0)--0--0--0-|--------------|
|--------------|---------17-17-17-|-17--17-17-17-(17)-17-17-17-|--------------|
|--------------|---------15-15-15-|-15--15-15-15-(15)-15-15-15-|--------------|
|--------------|------------------|----------------------------|--------------|


                        To Coda
  C               G     D         C
  Q  Q  E E E E   Q  Q  Q  E E    Q  Q  E E E E    Q   Q  E E E E
|-0--0--0-0-0-0-|-3--3--2--2-2--|-0--0--0-0-0-0-|--0---0--0-0-0-0-|
|-1--1--1-1-1-1-|-0--0--3--3-3--|-1--1--1-1-1-1-|--1---1--1-1-1-1-|
|-0--0--0-0-0-0-|-0--0--2--2-2--|-0--0--0-0-0-0-|--0---0--0-0-0-0-|
|-2--2--2-2-2-2-|-0--0--0--0-0--|-2--2--2-2-2-2-|--2---2--2-2-2-2-|
|-3--3--3-3-3-3-|---------------|-3--3--3-3-3-3-|--3---3--3-3-3-3-|
|---------------|-3--3----------|---------------|-----------------|
|
| W               H     H         W               +W
|-3-------------|-3-------------|-3-------------|-(3)-------------|
|-1-------------|-0-----3-------|-1-------------|-(1)-------------|
|-0-------------|-0-----0-------|-0-------------|-(0)-------------|
|---------------|-------4-------|---------------|-----------------|
|---------------|-------5-------|---------------|-----------------|
|---------------|---------------|---------------|-----------------|


                                        Guitar Solo
  D                                      Am                 D9/F#
  Q  Q  E E E E    Q   Q    E  E E E     Q   Q   E  E E E   Q   Q    E  E E E
|-2--2--2-2-2-2-|--2---2----2--2-2-2--||-0---0---0--0-0-0-|-0---0----0--0-0-0--|
|-3--3--3-3-3-3-|--3---3----3--3-3-3-o||-1---1---1--1-1-1-|-1---1----1--1-1-1--|
|-2--2--2-2-2-2-|--2---2----2--2-2-2--||-2---2---2--2-2-2-|-2---2----2--2-2-2--|
|-0--0--0-0-0-0-|--0---0----0--0-0-0--||-2---2---2--2-2-2-|-0---0----0--0-0-0--|
|---------------|--------------------o||-0---0---0--0-0-0-|--------------------|
|---------------|---------------------||------------------|-2---2----2--2-2-2--|
|
| Q  Q  E Q   E   +Q   E E +E  E Q       E E Q  +E  E E E   E E E E +E  E E E
|---------------|---------------------||-----0--(0)-0-0-0-|-0-0---0-(0)-0---0--|
|-------------3-|-(3)----------3-----o||-----5--(5)---5---|-5s3-3-3-(3)---3----|
|-------0-------|--------0-(0)--------||---0--------------|--------------------|
|----4----4-----|------4--------------||------------------|--------------------|
|-5-------------|--------------------o||------------------|--------------------|
|---------------|---------------------||------------------|--------------------|


  G                 Am                                     D9/F#
  Q   Q   E E E E   Q   Q   E E E E      Q   Q   E E E E   Q    Q   E E E E
|-3---3---3-3-3-3-|-0---0---0-0-0-0-|----0---0---0-0-0-0-|-0----0---0-0-0-0--|
|-0---0---0-0-0-0-|-1---1---1-1-1-1-|----1---1---1-1-1-1-|-1----1---1-1-1-1--|
|-0---0---0-0-0-0-|-2---2---2-2-2-2-|----2---2---2-2-2-2-|-2----2---2-2-2-2--|
|-0---0---0-0-0-0-|-2---2---2-2-2-2-|----2---2---2-2-2-2-|-0----0---0-0-0-0--|
|-----------------|-0---0---0-0-0-0-|----0---0---0-0-0-0-|-------------------|
|-3---3---3-3-3-3-|-----------------|--------------------|-2----2---2-2-2-2--|
|
| E E E E E E E E   E E E E E E E E   a  Q   E E E E E E   E  Q   E E E E E
|-----0-0-0-0---0-|---0-------0---0-|-0-(0)--0-0-0-0-0-0-|-0--0---0---0---0--|
|-1p0-0-0-0-0-0-0-|-----0---0---0-0-|-3s=5---5-------5---|-5-\3-----3---3----|
|-----0---4-------|-2-----2---------|--------------------|-------------------|
|-----------------|-----------------|--------------------|-------------------|
|-----------------|-----------------|--------------------|-------------------|
|-----------------|-----------------|--------------------|-------------------|


  G6                                  Am                    D9/F#
  Q   Q   E E E E   Q   Q   E E E E   Q     Q    E  E E E   Q   Q   E E E E
|-0---0---0-0-0-0-|-0---0---0-0-0-0-|-0-----0----0--0-0-0-|-0---0---0-0-0-0-|
|-0---0---0-0-0-0-|-0---0---0-0-0-0-|-1-----1----1--1-1-1-|-1---1---1-1-1-1-|
|-0---0---0-0-0-0-|-0---0---0-0-0-0-|-2-----2----2--2-2-2-|-2---2---2-2-2-2-|
|-0---0---0-0-0-0-|-0---0---0-0-0-0-|-2-----2----2--2-2-2-|-0---0---0-0-0-0-|
|-----------------|-----------------|-0-----0----0--0-0-0-|-----------------|
|-3---3---3-3-3-3-|-3---3---3-3-3-3-|---------------------|-2---2---2-2-2-2-|
|
| E E E E E E E E   E E E E E E E E   E  E  E E +E  E E E   E E E E E E E E
|---0---0---0---0-|---0-0-0---0---0-|-0-(0)-0-0-(0)-0-0-0-|---0---0---0-0-0-|
|-3---3---3---3---|-3-------3---3---|-3s=5----5-(5)---5---|-5-3-3-3-3---3-3-|
|-----------------|-----------------|---------------------|-----------------|
|-----------------|-----------------|---------------------|-----------------|
|-----------------|-----------------|---------------------|-----------------|
|-----------------|-----------------|---------------------|-----------------|


  G                   Am                                     D9/F#
  Q   Q    E  E E E   Q   Q    E  E E E   Q  Q    E  E E E   Q  Q    E  E E E
|-3---3----3--3-3-3-|-0---0----0--0-0-0-|-0--0----0--0-0-0-|-0--0----0--0-0-0-|
|-0---0----0--0-0-0-|-1---1----1--1-1-1-|-1--1----1--1-1-1-|-1--1----1--1-1-1-|
|-0---0----0--0-0-0-|-2---2----2--2-2-2-|-2--2----2--2-2-2-|-2--2----2--2-2-2-|
|-0---0----0--0-0-0-|-2---2----2--2-2-2-|-2--2----2--2-2-2-|-0--0----0--0-0-0-|
|-------------------|-0---0----0--0-0-0-|-0--0----0--0-0-0-|------------------|
|-3---3----3--3-3-3-|-------------------|------------------|-2--2----2--2-2-2-|
|
| E E E E +E  E Q     E E E E +E  E E E   Q  E E +E  E E E   Q  E E +E  E E E
|-0---0-0-(0)-0-----|-0-0-0-0-(0)-0-0-0-|-0--0-0-(0)-0-----|------------------|
|-1p0-0-0-(0)-0-----|-0-0-0-0-(0)-0-0-0-|-0--0-0-(0)-0-0-0-|----0-------------|
|-------4-(4)-0-2---|-2-2-2-0-(0)---2---|-4--4-2-(2)---0---|------0-(0)---0---|
|-------------------|-------------------|------------------|-4----4-(4)p0-0h2-|
|-------------------|-------------------|------------------|------------------|
|-------------------|-------------------|------------------|------------------|


                      D.S. al Coda &
  G6                                  C
  Q  Q  E E E E    Q   Q  E E E E     W          +W           +W
|-0--0--0-0-0-0-|--0---0--0-0-0-0--||-0--------|-(0)--------|-(0)----|
|-0--0--0-0-0-0-|--0---0--0-0-0-0--||-1--------|-(1)--------|-(1)----|
|-0--0--0-0-0-0-|--0---0--0-0-0-0--||-0--------|-(0)--------|-(0)----|
|-0--0--0-0-0-0-|--0---0--0-0-0-0--||-2--------|-(2)--------|-(2)----|
|---------------|------------------||-3--------|-(3)--------|-(3)----|
|-3--3--3-3-3-3-|--3---3--3-3-3-3--||----------|------------|--------|
|
| W               +W                  W          +W           +W
|---------------|------------------||-3--------|-(3)--------|-(3)----|
|---------------|------------------||-1--------|-(1)--------|-(1)----|
|-0-------------|-(0)--------------||-0--------|-(0)--------|-(0)----|
|-0-------------|-(0)--------------||----------|------------|--------|
|---------------|------------------||----------|------------|--------|
|---------------|------------------||----------|------------|--------|


               Out-Chorus
                G     D        C
  +W            Q  Q  Q  E E   Q  Q  E  E  E  E    Q      Q      E   E  E  E
|-(0)--------||-3--3--2--2-2-|-0--0--0--0--0--0-|--0------0------0---0--0--0-|
|-(1)--------||-0--0--3--3-3-|-1--1--1--1--1--1-|--1------1------1---1--1--1-|
|-(0)--------||-0--0--2--2-2-|-0--0--0--0--0--0-|--0------0------0---0--0--0-|
|-(2)--------||-0--0--0--0-0-|-2--2--2--2--2--2-|--2------2------2---2--2--2-|
|-(3)--------||--------------|-3--3--3--3--3--3-|--3------3------3---3--3--3-|
|------------||-3--3---------|------------------|----------------------------|
|
| +W            H     H        W                  +W
|-(3)--------||-3------------|-3----------------|-(3)------------------------|
|-(1)--------||-0-----3------|-1----------------|-(1)------------------------|
|-(0)--------||-0-----0------|-0----------------|-(0)------------------------|
|------------||-------4------|------------------|----------------------------|
|------------||-------5------|------------------|----------------------------|
|------------||--------------|------------------|----------------------------|
|
| Gtr III
|  W            W              H     E  E  E  E    E   E  E  E  +E   E  E  E
|------------||--------------|----------0--0--0-|--0---0--0--0--(0)--0--0--0-|
|------------||--------------|---------17-17-17-|-17--17-17-17-(17)-17-17-17-|
|------------||--------------|----------0--0--0-|--0---0--0--0--(0)--0--0--0-|
|------------||--------------|---------17-17-17-|-17--17-17-17-(17)-17-17-17-|
|------------||--------------|---------15-15-15-|-15--15-15-15-(15)-15-15-15-|
|------------||--------------|------------------|----------------------------|


  G     D        C                                               G     D
  Q  Q  Q  E E   Q  Q  E  E  E  E    Q      Q      E   E  E  E   Q  Q  Q  E E
|-3--3--2--2-2-|-0--0--0--0--0--0-|--0------0------0---0--0--0-|-3--3--2--2-2-|
|-0--0--3--3-3-|-1--1--1--1--1--1-|--1------1------1---1--1--1-|-0--0--3--3-3-|
|-0--0--2--2-2-|-0--0--0--0--0--0-|--0------0------0---0--0--0-|-0--0--2--2-2-|
|-0--0--0--0-0-|-2--2--2--2--2--2-|--2------2------2---2--2--2-|-0--0--0--0-0-|
|--------------|-3--3--3--3--3--3-|--3------3------3---3--3--3-|--------------|
|-3--3---------|------------------|----------------------------|-3--3---------|
|
| H     H        W                  +W                           H     H
|-3------------|-3----------------|-(3)------------------------|-3------------|
|-0-----3------|-1----------------|-(1)------------------------|-0-----3------|
|-0-----0------|-0----------------|-(0)------------------------|-0-----0------|
|-------4------|------------------|----------------------------|-------4------|
|-------5------|------------------|----------------------------|-------5------|
|--------------|------------------|----------------------------|--------------|
|
| W              H     E  E  E  E    E   E  E  E  +E   E  E  E   W
|--------------|----------0--0--0-|--0---0--0--0--(0)--0--0--0-|--------------|
|--------------|---------17-17-17-|-17--17-17-17-(17)-17-17-17-|--------------|
|--------------|----------0--0--0-|--0---0--0--0--(0)--0--0--0-|--------------|
|--------------|---------17-17-17-|-17--17-17-17-(17)-17-17-17-|--------------|
|--------------|---------15-15-15-|-15--15-15-15-(15)-15-15-15-|--------------|
|--------------|------------------|----------------------------|--------------|


  C               G     D         C
  Q  Q  E E E E   Q  Q  E E E E   Q  Q  Q  E E    Q   E E +E  E E E
|-0--0--0-0-0-0-|-3--3--2-2-2-2-|-0--0--0--0-0-|--0---0-0-(0)-0-0-0-|
|-1--1--1-1-1-1-|-0--0--3-3-3-3-|-1--1--1--1-1-|--1---1-1-(1)-1-1-1-|
|-0--0--0-0-0-0-|-0--0--2-2-2-2-|-0--0--0--0-0-|--0---0-0-(0)-0-0-0-|
|-2--2--2-2-2-2-|-0--0--0-0-0-0-|-2--2--2--2-2-|--2---2-2-(2)-2-2-2-|
|-3--3--3-3-3-3-|---------------|-3--3--3--3-3-|--3---3-3-(3)-3-3-3-|
|---------------|-3--3----------|--------------|--------------------|
|
| W               H     H         W              +W
|-3-------------|-3-------------|-3------------|-(3)----------------|
|-1-------------|-0-----3-------|-1------------|-(1)----------------|
|-0-------------|-0-----0-------|-0------------|-(0)----------------|
|---------------|-------4-------|--------------|--------------------|
|---------------|-------5-------|--------------|--------------------|
|---------------|---------------|--------------|--------------------|


  D                                    G      C         G
  Q  Q  E E E E    Q   Q    E  E E E   Q  E E E E E E   E E Q  H      +W
|-2--2--2-2-2-2-|--2---2----2--2-2-2-|-3--3-3-0-0-0-0-|-3-3-3--3----|-(3)----*|
|-3--3--3-3-3-3-|--3---3----3--3-3-3-|-0--0-0-1-1-1-1-|-0-0-0--0----|-(0)----*|
|-2--2--2-2-2-2-|--2---2----2--2-2-2-|-0--0-0-0-0-0-0-|-0-0-0--0----|-(0)----*|
|-0--0--0-0-0-0-|--0---0----0--0-0-0-|-0--0-0-2-2-2-2-|-0-0-0--0----|-(0)----*|
|---------------|--------------------|--------3-3-3-3-|-------------|--------*|
|---------------|--------------------|-3--3-3---------|-3-3-3--3----|-(3)----*|
|
| Q  Q  E Q   E   +Q   E E +E  E Q     Q  Q   E E Q     E E Q  H      +W
|---------------|--------------------|------------3---|-3------3----|-(3)----*|
|-------------3-|-(3)----------3-----|--------0h1-----|---1p0-------|--------*|
|-------0-------|--------0-(0)-------|----0-----------|-------------|--------*|
|----4----4-----|------4-------------|----------------|-------------|--------*|
|-5-------------|--------------------|----------------|-------------|--------*|
|---------------|--------------------|-3--------------|-------------|--------*|


Duration Legend
---------------
W - whole; H - half; Q - quarter; E - 8th; S - 16th; T - 32nd; X - 64th; a - acciaccatura
+ - note tied to previous; . - note dotted; .. - note double dotted
Uncapitalized letters represent notes that are staccato (1/2 duration)
Irregular groupings are notated above the duration line
Duration letters will always appear directly above the note/fret number it represents the
duration for.  Duration letters with no fret number below them represent rests.  Multi-
bar rests are notated in the form Wxn, where n is the number of bars to rest for.  Low
melody durations appear below the staff

Tablature Legend
----------------
 h   - hammer-on
 p   - pull-off
 b   - bend
 pb  - pre-bend
 r   - bend release (if no number after the r, then release immediately)
 /\  - slide into or out of (from/to "nowhere")
 s   - legato slide
 S   - shift slide
  - natural harmonic
[n]  - artificial harmonic
n(n) - tapped harmonic
 ~   - vibrato
 tr  - trill
 T   - tap
 TP  - trem. picking
 PM  - palm muting
\n/  - tremolo bar dip; n = amount to dip
 \n  - tremolo bar down
 n/  - tremolo bar up
/n\  - tremolo bar inverted dip
 =   - hold bend; also acts as connecting device for hammers/pulls
 <>  - volume swell (louder/softer)
 x   - on rhythm slash represents muted slash
 o   - on rhythm slash represents single note slash

Misc Legend
-----------
 |  - bar
||  - double bar
||o - repeat start
o|| - repeat end
*|  - double bar (ending)
 :  - bar (freetime)
 $  - Segno
 &  - Coda
Tempo markers -  = BPM(8/16=s8/s16), where s8 = swing 8ths, s16 = swing 16ths

            
            
Suggest correction
Creating personal tab
Creating personal tab
You can edit any tab online and save it as your Personal.

You can edit, replace or remove any tab part or add personal notes – all changes will be seen only by you.

Personal tabs can be accessed anytime from any device, even offline.
Learn more »
Give kudos to tab author, rate the tab!
1 2 3 4 5
comments
print report bad tab
guest
You may want to rate the tab now too:
select rating
Wanna post a correction for this tab? Suggest correction