Oops, an error
Loading. Please wait.

You Wreck Me Bass Tab

version 2
version 2

Whole song

Interactive

5,949 views 15 this week
1 commentread comment
1 2 3 4 5
accurate
x 5
add to favorites
launch autoscroll
font size
0
reset
guitar tuner
Autoscroll
slow
fast
+/-
esc
set tempo
stop
Help us to improve Ultimate-Guitar.com Take our survey!
×
Author
You Wreck Me - Tom Petty  (A Major)

Intro: rest 2

 Main riff                    "rescue me, should I go down"
G|-----------|          |-1-------------1-----------|
D|-1---------|          |---1-------------1---------|
A|---1-------|          |------1-------------1------|
E|------1----| x6       |---------------------------|

G|-----------|   
D|-1---------|    
A|---1-------|    
E|------1----| x2 

  Pre-chorus "oh yeah"
G|--1---3----|
D|-----------|
A|-----------|
E|-----------|

G|-----------|          |-1-------------1-----------|
D|-1---------|          |---1-------------1---------|
A|---1-------|          |------1-------------1------|
E|------1----| x8       |---------------------------|

G|-----------|   
D|-1---------|    
A|---1-------|    
E|------1----| x2 


G|--1---3----|
D|-----------|
A|-----------|
E|-----------|

G|-----------|   
D|-1---------|    
A|---1-------|    
E|------1----| x4

Solo 
G|---------------------------------------------|
D|-----------------------3---3-----3---3-------|
A|-4---4-----4---4---------3---3-3---3---3-3---|
E|---4---4-4---4---4-4-------------------------|

         
                                        
G|-----------|          |-1-------------1-----------|
D|-1---------|          |---1-------------1---------|
A|---1-------|          |------1-------------1------|
E|------1----| x13      |---------------------------|



G|-----------|   
D|-1---------|    
A|---1-------|    
E|------1----| x2 


G|--1---3----|
D|-----------|
A|-----------|
E|-----------|

G|-----------|   
D|-1---------|    
A|---1-------|    
E|------1----| x8 


  outro riff (x4)
G|---------------|
D|-1----1--------|
A|---1----1------|
E|-----------1---|
Suggest correction
comments
print report bad tab
1 comment total.
0 reply
vh1freak 16 wrote on February 10 2013, 07:19 pm

Pre-chorus needs to be a half step higher. Instead of what's written, you should play 4 (Ab), then 6 (Bb), both on the E string.

guest
You may want to rate the tab now too:
select rating
Wanna post a correction for this tab? Suggest correction