Oops, an error
Loading. Please wait.

Dont Do Me Like That Tab

version 1
version 1

Whole song

Interactive

40 views 1 this week
no commentswrite comment
1 2 3 4 5
3 more votes to show rating
add to favorites
launch autoscroll
font size
0
reset
how to read this tab
guitar tuner
Autoscroll
slow
fast
+/-
esc
set tempo
stop
Help us to improve Ultimate-Guitar.com Take our survey!
×
Author
Difficulty
intermediate
DON'T DO ME LIKE THAT

As recorded by Tom Petty & The Heartbreakers
(From the 1979 Album DAMN THE TORPEDOES)

Words and Music by Tom Petty

Transcribed by Slowhand

Gtr I (E A D G B E) - 'Tom Petty - Electric Guitar '
Gtr II (E A D G B E) - 'Mike Campbell - Electric Guitar'
Gtr III (E A D G B E) - 'Mike Campbell - Electric Guitar'


   Intro
    Q=114
    G              Fadd9          Csus2          D
   4/4
    Gtrs I, II
    E E E E H      E E E E H      E E E E H      E E E E +H
||--3-----3------|-3-----3------|-3-----3------|-----------------||
||o-3-----3------|-1-----1------|-3-----3------|-7-----7-(7)----o||
||--4-----4------|-2-----2------|-5-----5------|-7-----7-(7)-----||
||--5-----5------|--------------|-5-----5------|-7-----7-(7)-----||
||o-5-----5------|-3-----3------|-3-----3------|-5-----5-(5)----o||
||--3-----3------|-1-----1------|--------------|-----------------||


 1st Verse
  G              Fadd9          Csus2          D
  E E E E H      E E E E H      E E E E H      E E E E +H
|-3-----3------|-3-----3------|-3-----3------|----------------|
|-3-----3------|-1-----1------|-3-----3------|-7-----7-(7)----|
|-4-----4------|-2-----2------|-5-----5------|-7-----7-(7)----|
|-5-----5------|--------------|-5-----5------|-7-----7-(7)----|
|-5-----5------|-3-----3------|-3-----3------|-5-----5-(5)----|
|-3-----3------|-1-----1------|--------------|----------------|


  G              Fadd9          Csus2          D
  E E E E H      E E E E H      E E E E H      E E E E +H
|-3-----3------|-3-----3------|-3-----3------|----------------||
|-3-----3------|-1-----1------|-3-----3------|-7-----7-(7)----||
|-4-----4------|-2-----2------|-5-----5------|-7-----7-(7)----||
|-5-----5------|--------------|-5-----5------|-7-----7-(7)----||
|-5-----5------|-3-----3------|-3-----3------|-5-----5-(5)----||
|-3-----3------|-1-----1------|--------------|----------------||


 Chorus
  G                     Fadd9
  E E E E Q     E S S    E  E E E H
|-3-----3-------x-x-x-|--3------3----------|
|-3-----3-------x-x-x-|--1------1----------|
|-4-----4-------x-x-x-|--2------2----------|
|-5-----5-------------|--------------------|
|-5-----5-------------|--3------3----------|
|-3-----3-------------|--1------1----------|
|
| Gtr III
| H       E S S Q       +H        E S S Q
|---------------------|--------------------|
|---------------8-----|-(8)-------------8--|
|-----------7h9-------|-------------7h9----|
|---------------------|--------------------|
|---------------------|--------------------|
|---------------------|--------------------|


  Em7                 C        D
   Q.   E +Q   Q    a E. S E a E +S  S E Q
|-----------------|-------------------------|
|-^8----8-(8)--8--|-------------------------|
|-^7----7-(7)--7--|---5--5-----7-(7)-7---7--|
|-^9----9-(9)--9--|---5--5-5---7-(7)-7---7--|
|-^7----7-(7)--7--|-5h7----7-7h9-(9)---9-9--|
|-^0----0-(0)--0--|-------------------------|
|
| +H       H          W
|-----------------|-------------------------|
|-(8)-------------|-------------------------|
|-----------------|-------------------------|
|-----------------|-------------------------|
|-----------------|-------------------------|
|-----------------|-------------------------|


  G                     Fadd9
  E E E E Q     E S S    E  E E E H
|-3-----3-------x-x-x-|--3------3-------------|
|-3-----3-------x-x-x-|--1------1-------------|
|-4-----4-------x-x-x-|--2------2-------------|
|-5-----5-------------|-----------------------|
|-5-----5-------------|--3------3-------------|
|-3-----3-------------|--1------1-------------|
|
| H       E S S Q       +H        E S S S S E
|---------------------|-----------------------|
|---------------8-----|-(8)-------------8-----|
|-----------7h9-------|-------------7h9---7h9-|
|---------------------|-----------------------|
|---------------------|-----------------------|
|---------------------|-----------------------|


  Em7                 C        D
   Q.   E +Q   Q    a E. S E a E +S  S E Q
|-----------------|---------------------------||
|-^8----8-(8)--8--|---------------------------||
|-^7----7-(7)--7--|---5--5-----7-(7)-7---7----||
|-^9----9-(9)--9--|---5--5-5---7-(7)-7---7----||
|-^7----7-(7)--7--|-5h7----7-7h9-(9)---9-9----||
|-^0----0-(0)--0--|---------------------------||
|
|  H       H          W
|-----------------|---------------------------||
|--8--------------|---------------------------||
|-----------------|---------------------------||
|-----------------|---------------------------||
|-----------------|---------------------------||
|-----------------|---------------------------||


 2nd & 3rd Verses
  $
  G                Fadd9          Csus2            D
  E E E E H        E E E E H       E  E E E H      E E E E +H
|-3-----3------|---3-----3------|--3------3------|---------------------------|
|-3-----3------|---1-----1------|--3------3------|-7-----7-(7)---------------|
|-4-----4------|---2-----2------|--5------5------|-7-----7-(7)---------------|
|-5-----5------|----------------|--5------5------|-7-----7-(7)---------------|
|-5-----5------|---3-----3------|--3------3------|-5-----5-(5)---------------|
|-3-----3------|---1-----1------|----------------|---------------------------|
|
|                  ~~~~~~~~~~~~~~~~~~~
| W              a W              +W               H        S S S S S S S S
|--------------|----------------|----------------|---------------------------|
|--------------|----------------|----------------|----------------------8----|
|--------------|-7s9------------|-(9)------------|--------------7---7h9------|
|--------------|----------------|----------------|----------7h9--------------|
|--------------|----------------|----------------|---------------------------|
|--------------|----------------|----------------|---------------------------|


  G              Fadd9
  E E E E H       E  E E E H
|-3-----3------|--3------3------|
|-3-----3------|--1------1------|
|-4-----4------|--2------2------|
|-5-----5------|----------------|
|-5-----5------|--3------3------|
|-3-----3------|--1------1------|
|
| ~~~~~~~~~~~~~~~~~~~
| W              +W
|--------------|----------------|
|-8------------|-(8)------------|
|--------------|----------------|
|--------------|----------------|
|--------------|----------------|
|--------------|----------------|


  Csus2                  D
   E    E   E  E  H       E          E  E E +H
|--3-----------3-------|-------------------------------||
|--3-----------3-------|--7---------------7-(7)--------||
|--5-----------5-------|--7---------------7-(7)--------||
|--5-----------5-------|--7---------------7-(7)--------||
|--3-----------3-------|--5---------------5-(5)--------||
|----------------------|-------------------------------||
|
|  Q       +Q     H       S      +E.    Q    E  +E  Q
|----------------------|---------------12--------------||
|-10b12---(10)---10----|-10b12==(10)--------10r(10)-8--||
|----------------------|-------------------------------||
|----------------------|-------------------------------||
|----------------------|-------------------------------||
|----------------------|-------------------------------||


 Chorus
  G                        Fadd9
   E   E E E Q     E S S    E  E E E H
|--3-------3-------x-x-x-|--3------3----------|
|--3-------3-------x-x-x-|--1------1----------|
|--4-------4-------x-x-x-|--2------2----------|
|--5-------5-------------|--------------------|
|--5-------5-------------|--3------3----------|
|--3-------3-------------|--1------1----------|
|
| +H         E S S Q       +H        E S S Q
|------------------------|--------------------|
|-(8)\-------------8-----|-(8)-------------8--|
|--------------7h9-------|-------------7h9----|
|------------------------|--------------------|
|------------------------|--------------------|
|------------------------|--------------------|


  Em7                 C        D
   Q.   E +Q   Q    a E. S E a E +S  S E Q
|-----------------|-------------------------|
|-^8----8-(8)--8--|-------------------------|
|-^7----7-(7)--7--|---5--5-----7-(7)-7---7--|
|-^9----9-(9)--9--|---5--5-5---7-(7)-7---7--|
|-^7----7-(7)--7--|-5h7----7-7h9-(9)---9-9--|
|-^0----0-(0)--0--|-------------------------|
|
| +H       H          W
|-----------------|-------------------------|
|-(8)-------------|-------------------------|
|-----------------|-------------------------|
|-----------------|-------------------------|
|-----------------|-------------------------|
|-----------------|-------------------------|


                                       To Coda
  G                     Fadd9
  E E E E Q     E S S    E  E E E H
|-3-----3-------x-x-x-|--3------3--------------|
|-3-----3-------x-x-x-|--1------1--------------|
|-4-----4-------x-x-x-|--2------2--------------|
|-5-----5-------------|------------------------|
|-5-----5-------------|--3------3--------------|
|-3-----3-------------|--1------1--------------|
|
| H       E S S Q       +H        E S S S S E
|---------------------|------------------------|
|---------------8-----|-(8)-------------8------|
|-----------7h9-------|-------------7h9---7h9--|
|---------------------|------------------------|
|---------------------|------------------------|
|---------------------|------------------------|


  Em7                 C        D
   Q.   E +Q   Q    a E. S E a E +S  S E Q
|-----------------|--------------------------||
|-^8----8-(8)--8--|--------------------------||
|-^7----7-(7)--7--|---5--5-----7-(7)-7---7---||
|-^9----9-(9)--9--|---5--5-5---7-(7)-7---7---||
|-^7----7-(7)--7--|-5h7----7-7h9-(9)---9-9---||
|-^0----0-(0)--0--|--------------------------||
|
|  ~~~
|  W                  W
|-----------------|--------------------------||
|--8--------------|--------------------------||
|-----------------|--------------------------||
|-----------------|--------------------------||
|-----------------|--------------------------||
|-----------------|--------------------------||


 Bridge
  G5                  C5
  E E E E E E E E      W
|-------------------|----------------------|
|-------------------|----------------------|
|-------------------|--5-------------------|
|-5-5-5-5-5-5-5-5---|--5-------------------|
|-5-5-5-5-5-5-5-5---|--3-------------------|
|-3-3-3-3-3-3-3-3---|----------------------|
|
| H       Q   E S S    E E  E E   E  E E E
|-------------------|----8----6------------|
|-------------------|---------------10---8-|
|---------------0-0-|-/9---/7--------------|
|-------------------|-----------/10----8---|
|-------------------|----------------------|
|-------------------|----------------------|


  G5                  C5
  E E E E E E E E      H          E  E E E
|-------------------|------------------------|
|-------------------|------------------------|
|-------------------|--5-------------5---5---|
|-5-5-5-5-5-5-5-5---|--5-------------5---5---|
|-5-5-5-5-5-5-5-5---|--3-------------3---3---|
|-3-3-3-3-3-3-3-3---|------------------------|
|
| H       Q   E S S    E E  E E   E  E E E
|-------------------|----8----6--------------|
|-------------------|---------------10---8---|
|---------------0-0-|-/9---/7----------------|
|-------------------|-----------/10----8-----|
|-------------------|------------------------|
|-------------------|------------------------|


  G5                  C5                     Cm               D
  E E E E E E E E      H          E  E E E   W                W
|-------------------|----------------------|-3--------------|-2----|
|-------------------|----------------------|-4--------------|-3----|
|-------------------|--5----------5--5-5-5-|-5--------------|-2----|
|-5-5-5-5-5-5-5-5---|--5----------5--5-5-5-|-5--------------|-0----|
|-5-5-5-5-5-5-5-5---|--3----------3--3-3-3-|-3--------------|------|
|-3-3-3-3-3-3-3-3---|----------------------|----------------|------|
|
| H       Q   E S S    E E  E E   E  E E E   Q.   E +Q   Q    W
|-------------------|----8----6------------|----------------|-2----|
|-------------------|---------------10---8-|-4----4-(4)--x--|-3----|
|---------------0-0-|-/9---/7--------------|-5----5-(5)--x--|-2----|
|-------------------|-----------/10----8---|-5----5-(5)--x--|-0----|
|-------------------|----------------------|-3----3-(3)--x--|-0----|
|-------------------|----------------------|----------------|------|


D.S. al Coda    &
                Em7                 C        D
  +W             Q.   E +Q   Q    a E. S E a E +S  S E Q
|-(2)--------||-----------------|-------------------------||
|-(3)--------||-^8----8-(8)--8--|-------------------------||
|-(2)--------||-^7----7-(7)--7--|---5--5-----7-(7)-7---7--||
|-(0)--------||-^9----9-(9)--9--|---5--5-5---7-(7)-7---7--||
|------------||-^7----7-(7)--7--|-5h7----7-7h9-(9)---9-9--||
|------------||-^0----0-(0)--0--|-------------------------||
|
| +W             W                  W
|-(2)--------||-----------------|-------------------------||
|-(3)--------||-----------------|-------------------------||
|-(2)--------||-----------------|-------------------------||
|-(0)--------||-----------------|-------------------------||
|-(0)--------||-----------------|-------------------------||
|------------||-----------------|-------------------------||


 Outro
  G                           Fadd9
  Gtr I
  E E   E   E Q     E   S S    E  E   E   E H
|-3---------3-------x---x-x-|--3----------3-----------------|
|-3---------3-------x---x-x-|--1----------1-----------------|
|-4---------4-------x---x-x-|--2----------2-----------------|
|-5---------5---------------|-------------------------------|
|-5---------5---------------|--3----------3-----------------|
|-3---------3---------------|--1----------1-----------------|
|
| Gtr III
| H           Q     S S E     +Q      Q     E   S S S S E
|---------------------------|-------------------------------|
|-----------------------8---|-(8)-------------------8-------|
|-------------------7h9-----|-------------------7h9---7h9---|
|---------------------------|-------------------------------|
|---------------------------|-------------------------------|
|---------------------------|-------------------------------|
|
| Gtr II
| E S S S S E S S E E   S S    E  S S S S E S S E   E   S S
|---------------------------|-------------------------------|
|-8-x-x-x-x-8-x-x-8-8---x-x-|--8--x-x-x-x-8-x-x-8---8---x-x-|
|---------------------------|-------------------------------|
|-5-x-x-x-x-5-x-x-5-5---x-x-|--5--x-x-x-x-5-x-x-5---5---x-x-|
|---------------------------|-------------------------------|
|---------------------------|-------------------------------|


  Em7                             C            D
   Q.         E +Q      Q       a E.   S E   a E +S  S E   Q
|-----------------------------|-------------------------------------|
|-^8----------8-(8)-----8-----|-------------------------------------|
|-^7----------7-(7)-----7-----|---5----5-------7-(7)-7-----7--------|
|-^9----------9-(9)-----9-----|---5----5-5-----7-(7)-7-----7--------|
|-^7----------7-(7)-----7-----|-5h7------7---7h9-(9)---9---9--------|
|-^0----------0-(0)-----0-----|-------------------------------------|
|
|  W                              H               E    S S S S E
|-----------------------------|-------------------------------------|
|-----------------------------|----------------------------8--------|
|-----------------------------|------------------------7-9---7-9----|
|-----------------------------|-------------------------------------|
|-----------------------------|-------------------------------------|
|-----------------------------|-------------------------------------|
|
|  E  S S S S E  S  S E E S S     E  S S S S   E  S  S E   E   S S
|-----------------------------|-------------------------------------|
|--8--x-x-x-x-8--x--x-8-8-x-x-|---8--x-x-x-x---8--x--x-8---8---x-x--|
|-----------------------------|-------------------------------------|
|--5--x-x-x-x-5--x--x-5-5-x-x-|---5--x-x-x-x---5--x--x-5---5---x-x--|
|-----------------------------|-------------------------------------|
|-----------------------------|-------------------------------------|


  G                             Fadd9
  E E   E   E Q       E   S S   E E   E   E H
|-3---------3---------x---x-x-|-3---------3-----------------|
|-3---------3---------x---x-x-|-1---------1-----------------|
|-4---------4---------x---x-x-|-2---------2-----------------|
|-5---------5-----------------|-----------------------------|
|-5---------5-----------------|-3---------3-----------------|
|-3---------3-----------------|-1---------1-----------------|
|
| H           E   S S S S E     H           E   S S S S E
|-----------------------------|-----------------------------|
|-8-------------------8-------|-8-------------------8-------|
|-----------------7-9---7-9---|-----------------7h9---7h9---|
|-----------------------------|-----------------------------|
|-----------------------------|-----------------------------|
|-----------------------------|-----------------------------|
|
| E S S S S E S S E   E   S S   E S S S S E S S E   E   S S
|-----------------------------|-----------------------------|
|-8-x-x-x-x-8-x-x-8---8---x-x-|-8-x-x-x-x-8-x-x-8---8---x-x-|
|-----------------------------|-----------------------------|
|-5-x-x-x-x-5-x-x-5---5---x-x-|-5-x-x-x-x-5-x-x-5---5---x-x-|
|-----------------------------|-----------------------------|
|-----------------------------|-----------------------------|


  Em7
   Q.         E +Q      Q
|-------------------------------|
|-^8----------8-(8)-----8-------|
|-^7----------7-(7)-----7-------|
|-^9----------9-(9)-----9-------|
|-^7----------7-(7)-----7-------|
|-^0----------0-(0)-----0-------|
|
|  ~~~
|  W
|-------------------------------|
|--8----------------------------|
|-------------------------------|
|-------------------------------|
|-------------------------------|
|-------------------------------|
|
|  E  S S S S E  S  S E E S S
|-------------------------------|
|--8--x-x-x-x-8--x--x-8-8-x-x---|
|-------------------------------|
|--5--x-x-x-x-5--x--x-5-5-x-x---|
|-------------------------------|
|-------------------------------|


    C             D
  a E.    S E   a E   +S  S E   Q
|---------------------------------------|
|---------------------------------------|
|---5-----5-------7---(7)-7-----7-------|
|---5-----5-5-----7---(7)-7-----7-------|
|-5h7-------7---7h9---(9)---9---9-------|
|---------------------------------------|
|
|   S S S S S S   S S  S  S S S S S E
|---------------------------------------|
|-------8-----8--------8------8-----8---|
|---7h9---7h9-----7h9-----7h9---7h9-----|
|---------------------------------------|
|---------------------------------------|
|---------------------------------------|
|
|   E   S S S S   E    S  S E   E   S S
|---------------------------------------|
|---8---x-x-x-x---8----x--x-8---8---x-x-|
|---------------------------------------|
|---5---x-x-x-x---5----x--x-5---5---x-x-|
|---------------------------------------|
|---------------------------------------|


  G                                 Fadd9
  E   E   E   E   Q       E   S S   E E   E   E   H
|-3-----------3-----------x---x-x-|-3---------3------------------------|
|-3-----------3-----------x---x-x-|-1---------1------------------------|
|-4-----------4-----------x---x-x-|-2---------2------------------------|
|-5-----------5-------------------|------------------------------------|
|-5-----------5-------------------|-3---------3------------------------|
|-3-----------3-------------------|-1---------1------------------------|
|
| S S S S S S S S S S S S S S E     E E   S E   S E   S S +S  S E
|---------------------------------|------------------------------------|
|-----8-----8-----8-----8-----8---|---8---8-8---8-8---8-8-(8)-8-8------|
|-7h9---7h9---7h9---7h9---7h9-----|------------------------------------|
|---------------------------------|------------------------------------|
|---------------------------------|------------------------------------|
|---------------------------------|------------------------------------|
|
| E   S S S S E   S S E   E   S S   E S S S S E   S S E    E    S S
|---------------------------------|------------------------------------|
|-8---x-x-x-x-8---x-x-8---8---x-x-|-8-x-x-x-x-8---x-x-8----8----x-x----|
|---------------------------------|------------------------------------|
|-5---x-x-x-x-5---x-x-5---5---x-x-|-5-x-x-x-x-5---x-x-5----5----x-x----|
|---------------------------------|------------------------------------|
|---------------------------------|------------------------------------|


  Em7
   Q.         E   +Q         Q
|-------------------------------------|
|-^8----------8---(8)--------8--------|
|-^7----------7---(7)--------7--------|
|-^9----------9---(9)--------9--------|
|-^7----------7---(7)--------7--------|
|-^0----------0---(0)--------0--------|
|
| +E  S S S E   S  E    S S +S  S E
|-------------------------------------|
|-(8)-----8-8---8--8----8-8-(8)-8-8---|
|-----7h9-----------------------------|
|-------------------------------------|
|-------------------------------------|
|-------------------------------------|
|
|  E  S S S S E    S  S E    E    S S
|-------------------------------------|
|--8--x-x-x-x-8----x--x-8----8----x-x-|
|-------------------------------------|
|--5--x-x-x-x-5----x--x-5----5----x-x-|
|-------------------------------------|
|-------------------------------------|


    C             D                         G
  a  E.   S E   a E   +S  S E    Q           E  E   E   E   Q        E    S S
|-----------------------------------------|--3----------3------------x----x-x--*|
|-----------------------------------------|--3----------3------------x----x-x--*|
|----5----5-------7---(7)-7------7--------|--4----------4------------x----x-x--*|
|----5----5-5-----7---(7)-7------7--------|--5----------5----------------------*|
|-5h=7------7---7h9---(9)---9----9--------|--5----------5----------------------*|
|-----------------------------------------|--3----------3----------------------*|
|
|   +E  S S S E     S  E    S S +S  S E     +E  S S S E   S E   S S +S  S E
|-----------------------------------------|------------------------------------*|
|---(8)-----8-8-----8--8----8-8-(8)-8-8---|-(8)-----8-8---8-8---8-8-(8)-8-8----*|
|-------7h9-------------------------------|-----7h9----------------------------*|
|-----------------------------------------|------------------------------------*|
|-----------------------------------------|------------------------------------*|
|-----------------------------------------|------------------------------------*|
|
|    E  S S S S   E    S  S E    E    S S    E  S S S S E   S S E    E    S S
|-----------------------------------------|------------------------------------*|
|----8--x-x-x-x---8----x--x-8----8----x-x-|--8--x-x-x-x-8---x-x-8----8----x-x--*|
|-----------------------------------------|------------------------------------*|
|----5--x-x-x-x---5----x--x-5----5----x-x-|--5--x-x-x-x-5---x-x-5----5----x-x--*|
|-----------------------------------------|------------------------------------*|
|-----------------------------------------|------------------------------------*|


Duration Legend
---------------
W - whole; H - half; Q - quarter; E - 8th; S - 16th; T - 32nd; X - 64th; a - acciaccatura
+ - note tied to previous; . - note dotted; .. - note double dotted
Uncapitalized letters represent notes that are staccato (1/2 duration)
Irregular groupings are notated above the duration line
Duration letters will always appear directly above the note/fret number it represents the
duration for.  Duration letters with no fret number below them represent rests.  Multi-
bar rests are notated in the form Wxn, where n is the number of bars to rest for.  Low
melody durations appear below the staff

Tablature Legend
----------------
 h   - hammer-on
 p   - pull-off
 b   - bend
 pb  - pre-bend
 r   - bend release (if no number after the r, then release immediately)
 /\  - slide into or out of (from/to "nowhere")
 s   - legato slide
 S   - shift slide
  - natural harmonic
[n]  - artificial harmonic
n(n) - tapped harmonic
 ~   - vibrato
 tr  - trill
 T   - tap
 TP  - trem. picking
 PM  - palm muting
\n/  - tremolo bar dip; n = amount to dip
 \n  - tremolo bar down
 n/  - tremolo bar up
/n\  - tremolo bar inverted dip
 =   - hold bend; also acts as connecting device for hammers/pulls
 <>  - volume swell (louder/softer)
 x   - on rhythm slash represents muted slash
 o   - on rhythm slash represents single note slash

Misc Legend
-----------
 |  - bar
||  - double bar
||o - repeat start
o|| - repeat end
*|  - double bar (ending)
 :  - bar (freetime)
 $  - Segno
 &  - Coda
Tempo markers -  = BPM(8/16=s8/s16), where s8 = swing 8ths, s16 = swing 16ths




I was talking with a friend of mine, said a woman had hurt his pride.
Told him that she loved him so and turned around and let him go.
Then he said, "You better watch your step, or your gonna get hurt
Yourself.
Someone's gonna tell you lies, cut you down to size. "

Don't do me like that.
Don't do me like that.
What if I love you baby?
Don't do me like that.
Don't do me like that.
Don't do me like that.
Someday I might need you baby.
Don't do me like that.

Listen honey, can you see? Baby, you would bury me
If you were in the public eye givin' someone else a try.
And you know you better watch your step or you're gonna get hurt
Yourself.
Someone's gonna tell you lies, cut you down to size.

Don't do me like that.
Don't' do me like that.
What if I love you baby?
Don't, don't, don't, don't...
Don't do me like that.
Don't do me like that.
What if I need you baby?
Don't do me like that.

'Cause somewhere deep down inside
Someone is saying, "Love doesn't last that long."
I got this feelin' inside night and day
And now I can't take it no more.
Listen honey, can you see? Baby, you would bury me
If you were in the public eye givin' someone else a try.
And you know you better watch your step or you're gonna get hurt
Yourself.
Someone's gonna tell you lies, cut you down to size.

Don't do me like that.
Don't do me like that.
What if I love you baby?
Don't, don't, don't, don't...
Don't do me like that.
Don't do me like that.
I just might need you honey.
Don't do me like that.
Wait!
Don't do me like that.
Don't do me like that.
Baby, baby, baby,
Don't, don't, don't...
No!
Don't do me like that.
Don't do me like that.
Baby, baby, baby...
Oh, oh, oh...
Suggest correction
Give kudos to tab author, rate the tab!
1 2 3 4 5
comments
print report bad tab
guest
You may want to rate the tab now too:
select rating
Wanna post a correction for this tab? Suggest correction