Oops, an error
Loading. Please wait.

Algo Mal Tab

37 views 1 this week
no commentswrite comment
1 2 3 4 5
3 more votes to show rating
add to favorites
launch autoscroll
font size
0
reset
how to read this tab
guitar tuner
Autoscroll
slow
fast
+/-
esc
set tempo
stop
Help us to improve Ultimate-Guitar.com Take our survey!
×
INTRO:

 e|-----------------------------------------------------------------|
 B|-----------------------------------------------------------------|
 G|---7-7--7-7-6-----------7-7-6---------7-7-6----------------------|
 D|---7-7--------7//--7-7-------7//--9-9-------7//--55555-77777-----|
 A|---5-5-------------7-7------------9-9------------55555-77777-----|
 E|-------------------5-5------------7-7------------33333-55555-----|
                                                   PM.........


 ESTROFA 1: D5- A5- B5- G5/A5 (2 veces)

 No hay nada en tu cabeza, no piensas en lo ke haces

 solo pasas destruyendo lo ke hay junto a vos

 No ves ke haces daño?, no ves ke hieres tanto?

 llegara alguien bien ke lo haga con vos...


 CORO1: D5- A5- B5- G5/A5 (2 veces)

 Y estaremos justo alli, para verte llorar y sufrir

 Y estaremos justo alli, nos veras reir, nos veras reir...


 INTERMEDIO:

 e|--------------------------------------------------------------|
 B|--------------------------------------------------------------|
 G|---7-7--7-7-6---6---------7-7-6---6---------7-7-6---6---------|
 D|---7-7--------7---7--7-7--------7---7--9-9--------7---7-------|
 A|---5-5---------------7-7---------------9-9--------------------|
 E|---------------------5-5---------------7-7--------------------|

 e|---------------------|
 B|---------------------|
 G|---------------------|
 D|-----55555-77777-----|
 A|-----55555-77777-----|
 E|-----33333-55555-----|
        PM.........


 ESTROFA 2: D5- A5- B5- G5/A5 (2 veces)

 Lo que hiciste con juan, lo vas a pagar

 no podes golpear y huir...

 vamos a llegar, donde pienses estar

 no vas a olvidar que hiciste algo mal...


 CORO 2: D5- A5- B5- G5/A5 - D5- A5- A5- A5- A5- A5- D5//

 Y estaremos justo alli, para verte llorar y sufrir

 y estaremos justo alli, nos veras reir, nos veras reir

 nos veras reir, nos veras reir...


 PM= palm mute
 //= Dejar sonar


bueno eso es todo, la cancion esta facil y es muy buena...
excelente grupo de medallo!...suerteeeee
Suggest correction
Give kudos to tab author, rate the tab!
1 2 3 4 5
comments
print report bad tab
guest
You may want to rate the tab now too:
select rating
Wanna post a correction for this tab? Suggest correction