Oops, an error
Loading. Please wait.

A Sweet Little Bullet From A Pretty Blue Gun Bass Tab

972 views 1 this week
no commentswrite comment
1 2 3 4 5
3 more votes to show rating
add to favorites
launch autoscroll
font size
0
reset
guitar tuner
Autoscroll
slow
fast
+/-
esc
set tempo
stop
Help us to improve Ultimate-Guitar.com Take our survey!
×
Author
This is the main Bass riff with slight variations throughout. Hope it helps.
 
   Am 
G|---------------|---------------|---------------|---------------| 
D|---------------|---------------|---------------|---------------| 
A|-0---0---------|-0---0---------|-0---0---------|-0---0---------| 
E|-------0--3--4-|-------0--0-3--|-------0--3--4-|-------0--0-3--| 
			
   Am                D/F#              E    F#7    Gm   G#m 
G|-----------------|-----------------|-----------|------------------| 
D|-----------------|-----0-4---------|-----------|--------------0-2-| 
A|0---0------------|-----------5-0---|-----------|--------0-2-3-----| 
E|------0--3-5-4-3-|-2-------------2-|-0----2----|-3----4-----------| 
Suggest correction
Give kudos to tab author, rate the tab!
1 2 3 4 5
comments
print report bad tab
guest
You may want to rate the tab now too:
select rating
Wanna post a correction for this tab? Suggest correction