Oops, an error
Loading. Please wait.

Bronx Lullabye Smugglers Waltz Tab

3,015 views 1 this week
no commentswrite comment
1 2 3 4 5
x 4
add to favorites
launch autoscroll
font size
0
reset
how to read this tab
guitar tuner
Autoscroll
slow
fast
+/-
esc
set tempo
stop
Help us to improve Ultimate-Guitar.com Take our survey!
×
Author
Difficulty
advanced
Title : Bronx Lullabye / Smuggler's Waltz
Author : Tom Waits
Album : Poetry In Motion

Tablature by Andrew D.

Note: This song, originally from the film "Poetry In Motion", can be viewed on 
YouTube: bit.ly/eBi7uC


Intro
-----
                       
          F/A          E9                                        
			  (WELL...)
||---------------------------||
||----------10---------7~~~~~||
||----------10---------7~~~~~||
||----------10-------6-------||
||---(7)/12---------7--------||
||----------------0~~~~~-----||
     Slide           Sustain       



First Verse Tabs

    Amin7      E9               Amin7     E9
   (DAGGERS OF MOONLIGHT       MURDER THE SHEETS)
||----------------------||--------------------------||
||---------5------7~~~~~||------------5-------7~~~~~||
||---------5------7~~~~~||------------5-------7~~~~~||  
||-------5--------6~~~~~||----------5---------6~~~~~||
||---0----------7-------||------0-----------7-------||
||--(5)-------0~~~~-----||-----(5)--------0~~~~-----||



	  F/A         G7         Bmin7  E9
   (IN THE STINK OF A FOUR DOLLA' ROOM)
||----------------------------------------------||
||---------------10-------8----------7-----7~~~~||
||---------------10-------10---------7-----7~~~~||
||-------------10-------9----------7-------6~~~~||
||-------(7)/12-------10-----------------7------||
||-------------------------------7-----0~~~~~---||


    Amin7      E9               Amin7     E9
(AND DADDY'S GONE A-HUNTING FOR A DIME-BAG OF SCHOOL-BOY
||------------------------||---------------------------||
||-----------5------7~~~~~||------------5--------7~~~~~||
||-----------5------7~~~~~||------------5--------7~~~~~||  
||---------5--------6~~~~~||----------5----------6~~~~~||
||-----0----------7-------||------0------------7-------||
||----(5)-------0~~~~-----||-----(5)---------0~~~~-----||


	  F/A         G7        Bmin7   E9
   (TIED UP~~~~ WITH A  YELLOW BALLOON)
||----------------------------------------------||
||---------------10-------8----------7-----7~~~~||
||---------------10-------10---------7-----7~~~~||
||-------------10-------9----------7-------6~~~~||
||-------(7)/12-------10-----------------7------||
||-------------------------------7-----0~~~~~---||




	  F/A         G9           E9
      (SO HU~SH LITTLE BA~BY    DADDY MUST GO
||-------------------------------------------------||
||---------------10-------10--------10-------8~~~~~||
||---------------10-------10--------9--------9~~~~~||
||-------------10-------9---------8--------8-------||
||-------(7)/12-------10-----------------7---------||
||------------------------------8------------------||


	  F/A         G7         Bmin7  E9
   (I'LL COVER YOU    UP WITH A BLANKET OF SNOW)
||----------------------------------------------||
||---------------10-------8----------7-----7~~~~||
||---------------10-------10---------7-----7~~~~||
||-------------10-------9----------7-------6~~~~||
||-------(7)/12-------10-----------------7------||
||-------------------------------7-----0~~~~~---||


    Amin7      E9               Amin7        D9     D9/A   D9
(BYTHE TIME I MAKE JERSEY       YOU'LL BE IN HEAVEN)
||-------------------------||-----------------------------------||
||---------5---------7~~~~~||----------5----------5-----5-----5-||
||---------5---------7~~~~~||----------5----------5-----5-----5-||
||-------5-----------6~~~~~||--------5----------4-----4-----4---||
||---0-------------7-------||------0----------5-----------5-----||
||--(5)----------0~~~~-----||-----(5)---------------5-----------||



       F7#9      E9               Amin7  D9   Gmin7  C9    F7     E7
(IN A PRETTY BLU SHOEBOX I KNOW)                                               (SOO . . .)
||-----------------------------||-----------------------------------------------||
||---------9--------7----------||-----5----5\-----3-----3\-----1-----------7~~~~||
||---------8--------7----------||-----5----5\-----3-----3\-----2-----------9~~~~||
||-------7--------6------------||---5-----4------3-----2------1----------8------||
||---5/8--------7--------------||-------5------------3-------------(2)/9~~~~~~~~||
||-----------------------------||--5-----------3-----------1-----0~~~~~~~~~~~~~~||

Verse 2


    Amin7      E9               Amin7     E9
   (SINGA SONGOF TEN GRAND WITHA POCKET FULLOF DOUGH)
||----------------------||----------------------------||
||---------5-------7~~~~~||-------------5-------7~~~~~||
||---------5-------7~~~~~||-------------5-------7~~~~~||  
||-------5---------6~~~~~||-----------5---------6~~~~~||
||---0-----------7-------||-------0-----------7-------||
||--(5)--------0~~~~-----||------(5)--------0~~~~-----||



	  F/A         G7         Bmin7  E9
   (BUT I CAN'T TAKE   YOU  TO   BALTIMORE)
||----------------------------------------------||
||---------------10-------8----------7-----7~~~~||
||---------------10-------10---------7-----7~~~~||
||-------------10-------9----------7-------6~~~~||
||-------(7)/12-------10-----------------7------||
||-------------------------------7-----0~~~~~---||


    Amin7      E9               Amin7     E9
(WAKE GOD UP IN HEAVEN     HAVE HIM LOOK DOWN BELOW       
||-------------------------||-----------------------------------||
||---------5---------7~~~~~||----------5----------5-----5-----5-||
||---------5---------7~~~~~||----------5----------5-----5-----5-||
||-------5-----------6~~~~~||--------5----------4-----4-----4---||
||---0-------------7-------||------0----------5-----------5-----||
||--(5)----------0~~~~-----||-----(5)---------------5-----------||



       F7#9         F7#9/    E9      E9/A    Amin7  D9   Gmin7  C9    F7     E7
(THERES A LITTLE LOST ANGEL  BLOOMING IN  THE SNO~~~~~~~~~~~~OW)
||----------------------------------------||-----------------------------------------------||
||------------9---------8--------7------7-||-----5----5\-----3-----3\-----1-----------7~~~~||
||------------8---------8--------7------7-||-----5----5\-----3-----3\-----2-----------9~~~~||
||----------7---------7--------6-------6--||---5-----4------3-----2------1----------8------||
||------5/8------------------7------------||-------5------------3-------------(2)/9~~~~~~~~||
||------------------8----------------7----||--5-----------3-----------1-----0~~~~~~~~~~~~~~||

     Amin7                END!
||------7~~~~~~~~----||
||------5~~~~~~~~----||
||------5~~~~~~~~----||
||------5~~~~~~~~----||
||-------------------||
||----5~~~~~~~~~~----||
                  Sustain       


Suggest correction
comments
print report bad tab
guest
You may want to rate the tab now too:
select rating
Wanna post a correction for this tab? Suggest correction