Oops, an error
Loading. Please wait.

Cold Water Tab

version 1
version 1

Solo

Interactive

6,220 views 12 this week
no commentswrite comment
1 2 3 4 5
please rate
add to favorites
launch autoscroll
font size
0
reset
how to read this tab
guitar tuner
Autoscroll
slow
fast
+/-
esc
set tempo
stop
Help us to improve Ultimate-Guitar.com Take our survey!
×
Difficulty
novice
"Well there ain't nothing sweeter than riding the rail"

E|--------------------------------------------|
B|--------------------------------------------|
G|-----2----------2-2~------------------------|
D|-----2--------------------------2-4-2-4b5---|
A|-3b4----3b4-3b4------------0-/4-------------|
E|-----------------------0-2------------------|

E|-------------------5---5-----5-5----5-------------------------5~-|
B|-b8-b8-8r7-5-------5---5-----5-5----5-------------------------5~-|
G|-b8-b8-8r7-5-----------------------------------------------------|
D|-------------7-5-7---7-----7------7------------------------------|
A|----------------------------------------------2-4--2h4--3-2-0----|
E|--------------------------------------0-2-3-4--------------------|

E|-------10-10-------------10-10-------10-10-----------------|
B|-12b13-------12b13-12b13-------12b13-------12b13r12-10-10~-|
G|-----------------------------------------------------------|
D|-----------------------------------------------------------|
A|-----------------------------------------------------------|
E|-----------------------------------------------------------|

E|-6-7-5-4------------------------5----5---5----5-----5-|
B|---9-7-5-8-7-5---7-5---7-5------5----5---5----5-----5-|
G|---------8-7-5h6-7-5h6-7-5h6--------------------------|
D|------------------------------7----7--------7-----7---|
A|------------------------------------------------------|
E|------------------------------------------------------|

E|-------------------x--5--|
B|---5-5-7-7-7-7-5-3-x--5--|
G|---6-5-7-7-7-7-6-4-x-----|
D|-7-----------------------|
A|-------------------------|
E|-------------------------|


tabbed by Kelsey Terhorst
Suggest correction
What's this?
You can suggest a correction to this tab. Community and Mods will review your correction and vote to approve or reject it.
comments
We did not receive enough feedback on this tab! Please rate:
print report bad tab
1 2 3 4 5
guest
You may want to rate the tab now too:
select rating
Please do not post tabs as comments. Select "correction" instead!