Oops, an error
Loading. Please wait.

Downtown Train solo tab

version 1
version 1

Solo

Whole song

1,517 views 12 this week
2 commentsread comments
1 2 3 4 5
x 5
add to favorites
×
Save as Personal and add changes to this tab that will be seen only by you. Learn more ›
×
You can save this tab as Personal to edit and correct it or add notes. All changes will be seen only by you. Learn more »
launch autoscroll
font size
0
reset
how to read this tab
guitar tuner
edit
Autoscroll
slow
fast
+/-
esc
set tempo
stop
Author
Difficulty
---------------------------------------------------------------------------------------------------------------
                                          Artist - Tom Waits
                                         ********************
                                        Song - Downtown Train
                                       ***********************
                           Album - Beautiful Maladies: The Island Years (1998)   
                          *****************************************************
                                         Tabbed By - Ayreon77
                                        **********************
---------------------------------------------------------------------------------------------------------------
Tuning = Standard


INTRO
******
e|-11-------------------|--------------------|
B|----------h---s-------|------------8-6-----|
G|-----10-10-12-\10-8-8-|----h---7-8-----8-8-|
D|----------------------|-8-8-10-------------|
A|----------------------|--------------------|
E|----------------------|--------------------|


VOCALS
*******

01:08                 s                     s
e|------------8-6-|-6-6\8-|--------8-6-|-6-6\8-|-8-11-8------------|
B|----------------|-------|------------|-------|--------11-11------|
G|-8~~~---7-8-----|-------|------8-----|-------|-----------------8-|
D|------8---------|-------|-8-10-------|-------|-------------------|
A|----------------|-------|------------|-------|-------------------|
E|----------------|-------|------------|-------|-------------------|


01:56              s                    s
e|--------8-6-|-6-6\8-|--------8-6-|-6-6\8-|-11-11-8-8-8----|
B|------------|-------|------------|-------|-------------11-|
G|------8-----|-------|------8-----|-------|----------------|
D|-8-10-------|-------|-8-10-------|-------|----------------|
A|------------|-------|------------|-------|----------------|
E|------------|-------|------------|-------|----------------|
                                                                                  02:27
                                                                                  SOLO
                                                                                  *****
e|--------8-6-|-6-6\8-|--------8-6-|-6-6\8-|-11------------h---------------------|----------------------|
B|------------|-------|------------|-------|----13-11-11-11-13-11-11-11----------|---------s-----s------|
G|------8-----|-------|------8-----|-------|----------------------------12-12-12-|-13-12-12\10-10\8-8-8-|
D|-8-10-------|-------|-8-10-------|-------|-------------------------------------|----------------------|
A|------------|-------|------------|-------|-------------------------------------|----------------------|
E|------------|-------|------------|-------|-------------------------------------|----------------------|

02:31
e|------s------------|----------|-----------------------------------|-------11---------p---|
B|-11-11\13-11-------|-------11-|-------11------h--p------------s---|----------13-11-13-11-|
G|-------------12-13-|-12-13----|-12-13----13-12-13-12-10-12-8-8\10-|-12-13----------------|
D|-------------------|----------|-----------------------------------|----------------------|
A|-------------------|----------|-----------------------------------|----------------------|
E|-------------------|----------|-----------------------------------|----------------------|


e|----------------------------11-13-15-16-18-18-18-|
B|-11-11-11-11-11-11-11-11-13----------------------|
G|-------------------------------------------------|
D|-------------------------------------------------|
A|-------------------------------------------------|
E|-------------------------------------------------|


VOCALS
*******

02:47              s                    
e|--------8-6-|-6-6\8-|--------8-6-|--------|-------------------|
B|------------|-------|------------|--------|-------------------|
G|------8-----|-------|------8-----|----s---|--------s----------|
D|-8-10-------|-------|-8-10-------|-8-8\10-|-6-5-3-3\5-5--3----|
A|------------|-------|------------|--------|----------------6--|
E|------------|-------|------------|--------|-------------------|

                                                  h
e|--------8-6-|--------|--------8-6-|--------|---8-11-8--------------------------------|---------------|
B|------------|--------|------------|--------|--x-------11-8-11-9-8------h-----s-------|-------9-11-11-|
G|------8-----|----s---|------8-----|----s---|-x--------------------10-10-12-12\10-8-8-|-10-12---------|
D|-8-10-------|-8-8\10-|-8-10-------|-8-8\10-|-----------------------------------------|---------------|
A|------------|--------|------------|--------|-----------------------------------------|---------------|
E|------------|--------|------------|--------|-----------------------------------------|---------------|

                           Right hand palm  
e|--------------|--------|-mute -------------------------|--------s------s---7-7-7-7-7-7-7-7---|--------8-6-|
B|---s-----s----|--------|-------------------------------|-------7\9-9-9-\8--9-8-9-9-8-9-9-8---|------------|
G|-10\12-10\8-8-|--h-----|--------------s----------------|---8-------------------------------8-|------8-----|
D|--------------|-8-10-8-|-----------4-5\7-----4----s----|-8-----------------------------------|-8-10-------|
A|--------------|--------|--s----4-5-------5-7---5-5\7-5-|-------------------------------------|------------|
E|--------------|--------|-3\5-7-------------------------|-------------------------------------|------------|


e|-11-13-15-|
B|----------|
G|----------|
D|----------|
A|----------|
E|----------|



ENJOY.............

            
            
Suggest correction
Creating personal tab
Creating personal tab
You can edit any tab online and save it as your Personal.

You can edit, replace or remove any tab part or add personal notes – all changes will be seen only by you.

Personal tabs can be accessed anytime from any device, even offline.
Learn more »
comments
print report bad tab
2 comments total.
0 reply
newg [tm] 49,640 Aug 14, 2015 12:15 AM

Good job, you must make a powertab/guitar pro tab for this :)

0 reply
ayreon77 21,833 Aug 14, 2015 04:39 AM

no i don,t do guitar pro or power, I only do tabs, but someone else can.

guest
You may want to rate the tab now too:
select rating
Wanna post a correction for this tab? Suggest correction