Oops, an error
Loading. Please wait.

Goin Out West Tab

version 1
version 1

Whole song

20,292 views 75 this week
no commentswrite comment
1 2 3 4 5
x 7
add to favorites
launch autoscroll
font size
0
reset
how to read this tab
guitar tuner
Autoscroll
slow
fast
+/-
esc
set tempo
stop
Help us to improve Ultimate-Guitar.com Take our survey!
×
Author
Difficulty
novice
Tuning:"CADGBe" 
 
 [Verse/Intro](Variation)
e|------------------------------------------------|
B|------------------------------------------------|
G|------------------------------------------------|
D|-5----------4-----------------------------------|
A|-----------------------6------------------------|
C|--0-3-0-0-----3-0-3-0----3-0-3-0-0--0-3-0-0-3-0-|

 (then)
e|------------------------------------------------|
B|------------------------------------------------|
G|------------------------------------------------|
D|-5----------4-----------------------------------|
A|-----------------------6--3---------------------|
С|--0-3-0-0-----3-0-3-0-------0-3-0---------------|

 (The "Distorted" Riff comes up a few times, and varies off of these chords.)
e|----------------------------|
B|----------------------------|
G|-3/5-5-5-5----3/5-5-5-5-----|
D|-3/5-5-5-5----3/5-5-5-5-----|
A|-1/3-3-3-3----1/3-3-3-3-----|
C|----------------------------|

 (The timing is sort of weird, and sometimes he throws in mutes/odd harmonics based around 
  those chords.)

 (Occasionally, he does this this tiny riff back into the other riffs, it looks like
  this. it's most profound at 1:07ish)

e|---------------------------------|
B|---------------------------------|
G|-3/5-5-5-5----3/5-5-5-5----------|
D|-3/5-5-5-5----3/5-5-5-5----------|
A|-1/3-3-3-3----1/3-3-3-3----------|
C|------------------------h6h5h4h0-|

 (The chorus is similar to the distorted riff, but starts higher.)
e|-----------------|
B|-----------------|
G|-8/10-10-10-10---|
D|-8/10-10-10-10---|
A|-6/8--8--8--8----|
C|-----------------| x 2

 (Then)
e|----------------------------|
B|----------------------------|
G|-3/5-5-5-5----3/5-5-5-5-----|
D|-3/5-5-5-5----3/5-5-5-5-----|
A|-1/3-3-3-3----1/3-3-3-3-----|
C|----------------------------|

 (Then back to)
e|-----------------|
B|-----------------|
G|-8/10-10-10-10---|
D|-8/10-10-10-10---|
A|-6/8--8--8--8----|
C|-----------------|

 (And he goes up to a G, strums it a few times during the end of the chorus, and goes back 
 into the verse.)
e|-------------------|
B|-------------------|
G|-10/12-12-12-12-12-|
D|-10/12-12-12-12-12-|
A|-8-/10-10-10-10-10-|
C|-------------------|

************************************

| /  Slide up
| h  Hammer-on

************************************
Suggest correction
comments
print report bad tab
guest
You may want to rate the tab now too:
select rating
Wanna post a correction for this tab? Suggest correction