Oops, an error
Loading. Please wait.

Hoist That Rag solo tab

version 1
version 1

Whole song

14,030 views 6 this week
no commentswrite comment
1 2 3 4 5
2 more votes to show rating
add to favorites
×
Save as Personal and add changes to this tab that will be seen only by you. Learn more ›
×
You can save this tab as Personal to edit and correct it or add notes. All changes will be seen only by you. Learn more »
launch autoscroll
font size
0
reset
how to read this tab
guitar tuner
edit
Autoscroll
slow
fast
+/-
esc
set tempo
stop
Hoist That Rag (guitar solo)
Written by: Tom Waits
Guitar by: Marc Ribot
Album: Real Gone
Half-assed transcribed by: sa_laporte@yahoo.com

I’ve noticed no one has really given this any shot on the net. The solo is in the key
of Am. There are a few parts I haven’t tackled, the chord-jam at the end being the most
difficult. I started it off, the notes are pretty dead on. The repeated motif [A] is an
example of the notes. There are variations. So I hope this inspires someone to finish it
off or add something. When you do, drop me a line.

P.S. If anyone has a recording or any pictures from the New Years 06 Electric Masada
show @ Tonic, let me know. Or any Ceramic Dog bootlegs. Thanks

Solo intro        [A] repeating motif w/small variations
----------------|---------------------5-5(5)---------------|
--------6-5-----|-------6-5-----------6-5-5---------6-5----|
------5-----7-4-|-----5-----7-------5-----7-------5--------|
--5-7-----------|-5/7-----------5/7-----------5/7----------|
----------------|--------------------------------------etc-|
----------------|------------------------------------------|

--8---7-5--------------------------------------------------|
----5-----8------------------------------------------------|
------------------5--9----9-10-9-7-------------------------|
-------------5-7-------7-----------------------------------|
----------------------------------back to [A] Motif--------|
-----------------------------------------------------------|

-----------------------------------------------------------|
--------6-5------------------------------------------------|
------5-----7-5-7-5-4-7-5-4-7/9-9--more notes here---------|
--5-7------------------------------------------------------|
-----------------------------------------------------------|
-----------------------------------------------------------|

------------------8---7-5---8-7-5--------------------------|
--------6-5---------5-----8-------8---etc.-[A]/chord-jam---|
----5-7-----7-5--------------------------------------------|
--7-------------7------------------------------------------|
-----------------------------------------------------------|
-----------------------------------------------------------|
Suggest correction
Creating personal tab
Creating personal tab
You can edit any tab online and save it as your Personal.

You can edit, replace or remove any tab part or add personal notes – all changes will be seen only by you.

Personal tabs can be accessed anytime from any device, even offline.
Learn more »
Give kudos to tab author, rate the tab!
1 2 3 4 5
comments
print report bad tab
guest
Wanna post a correction for this tab? Suggest correction