Oops, an error
Loading. Please wait.

In Between Love Chords

58 views 33 this week
no commentswrite comment
1 2 3 4 5
1 last vote to show rating
add to favorites
launch autoscroll
font size
0
reset
transpose
0
reset
display chords
guitar tuner
Autoscroll
slow
fast
+/-
esc
set tempo
stop
Help us to improve Ultimate-Guitar.com Take our survey!
×
Author
Difficulty
Capo
intermediate
1st fret
About this tab version
There are no Chord versions of this song on Ultimate-Guitar, so I wrote one out, with some tablature at the start to help picking pattern. Was this info helpful? Yes No
"In Between Love" by Tom Waits
Full Credit goes to YouTube user Marcs12bar
Video Tutorial here: https://youtu.be/MZYVHkJezA8

[Intro]:
   D                         D         G                A 
e|-----2-------2-|-------2-------2-|-------3-------3-|---------------------|
B|-----3-------3-|-------3-------3-|-------3-------3-|-------2---2h3---2---|
G|---2-----------|-----------------|-----------------|-------2-2-----2---2-|
D|-0---------0---|-----0-------0---|-----------------|---------------------|
A|-------0-4-----|-0-2-----2-0-----|-0---2-------0---|-----0---------------|
E|---------------|-----------------|---3-----3-2-----|-2-0-----------------|

   D                         D         G       A        D             
e|-----2-------2-|-------2-------2-|-------3-------0-|---2-----------------|
B|-----3-------3-|-------3-------3-|-------3-------2-|---3-----------------|
G|---2-----------|-----------------|---------------2-|---2-----------------|
D|-0---------0---|-----0-------0---|-------------2---|---0-----------------|
A|-------0-4-----|-0-2-----2-0-----|-0---2-----0-----|-0-------------------|
E|---------------|-----------------|---3-----3-------|---------------------|

[Chorus]:
   Bm                        A         Bm                           A
e|---------------|-----------------|-----------------|---------------------|
B|-----3-------3-|-------3-------2-|-------3-------3-|-------3--------3-2--|
G|-----3-------3-|-------3-------2-|-------3-------3-|-------3------2------|
D|---4-------4---|-----4-------2---|-----4-------4---|-----4--------2------|
A|-2-----2-0-----|-0---------0-----|-0-2-----2-0-----|-0------------0------|
E|---------------|---3-----3-------|-----------------|---3-----------------|

[Intro]
    D    D
    G    A
    D    D
    G    A

[Verse]
D           D
 In between love       trying to scheme love
G                       A
 who can tell what we may find
D            D
  never thought love    that I'd get caught love
G                        A
  between the magic in your eyes

[Chorus]
Bm                                         A
  Loves like wind and it's so cool and bree-zy
Bm                                      A     D
  never thought that love could be so ea-sy

[Verse] 
D                     D
  In between love       trying to scheme love
G                 A     D  
  in between love          again

[Verse]
    D     D
    G     A
    D     D
    G     A

[Chorus]
    Bm    A
    Bm    A
    D

[Verse]
D                     D
  In between love       trying to scheme love
G                                A
  who can tell what we may find
D                      D
  All this time love    eyes of blind love
G                             A
  to the feelings in my mind

[Chorus]
Bm                                             A
 yeah Loves like wind and it's so cool and bree-zy
Bm                                      A    D
  never thought that love could be so ea-sy

[Verse]
D                     D
  In between love       trying to scheme love
G                 A      D  
  in between love           again


***********************************

| h Hammer-on 

***********************************
Suggest correction
Give kudos to tab author, rate the tab!
1 2 3 4 5
comments
print report bad tab
guest
You may want to rate the tab now too:
select rating
Wanna post a correction for this tab? Suggest correction