Oops, an error
Loading. Please wait.

Sea Of Love chords

version 5
version 5

Whole song

118 views 1 this week
no commentswrite comment
1 2 3 4 5
2 more votes to show rating
add to favorites
×
Save as Personal and add changes to this tab that will be seen only by you. Learn more ›
×
You can save this tab as Personal to edit and correct it or add notes. All changes will be seen only by you. Learn more »
launch autoscroll
font size
0
reset
transpose
0
reset
simplify chords
display chords
guitar tuner
edit
Autoscroll
slow
fast
+/-
esc
set tempo
stop
Author
About this tab version
This specific tab is based off the studio recorded version found here - https://www.youtube.com/watch?v=k3W-5nwr1aY This is in TW's key so you can play along. There are a few versions of Tom Waits' take on this old song, but none seem quite to hit the point. It's a weird, dissonant, quirky, well, Waits-like version. The little ghostly guitar solo below also serves as a guide for some of the riffs found throughout the song. Was this info helpful? Yes No
Strumming
There is no strumming pattern for this song yet. and get +5 IQ
[Chords]
    Fm   Fm7/Ab  C7  Bsus(b5) Bbsus(b5) C#7    Eb 
e|--1------1-------------x--------x-------x------3-----------|
B|--1------1------1------x--------x-------2------4-----------|
A|--1------1------3------4--------3-------4------6-----------|
D|--3------1------2------3--------2-------3------5-----------|
A|--3------3------3------2--------1-------4------6-----------|
E|--1------4------x------x--------x-------x------x-----------|

[Intro]
Fm   Fm7/Ab  C7  -  Fm   Fm7/Ab  C7

[Verse 1]
Fm       Fm7/Ab   C7            Fm    Fm7/Ab     Bsus(b5) Bbsus(b5)
Come with me    my_ love        to the sea, the  sea  of  love
Fm        Fm7/Ab        Bsus(b5)   Bbsus(b5)
I want to tell you      How much I love you
    C#7           C7       Fm     Fm7/Ab  -  Fm   Fm7/Ab
I'm drowning in a sea of   love

[Verse 2]
Fm         Fm7/Ab      C7
Do you re - member the night we met?
Fm                Fm7/Ab    Bsus(b5)  Bbsus(b5)
That's the night I knew you  were  my  pet
Fm        Fm7/Ab        Bsus(b5)   Bbsus(b5)
I want to tell you      How much I love you
    C#7           C7       Fm     Fm7/Ab  -  Fm   Fm7/Ab
I'm drowning in a sea of   love

[Bridge]
Eb            C7  
Come____ with me 
Eb            C7        C7         C7(bass line run CC BbBb AbAb GG)
To______  the sea___   Yeah....

[Verse 3]
Fm         Fm7/Ab      C7
Do you re - member the night we met?
Fm                Fm7/Ab     Bsus(b5)  Bbsus(b5)
That's the night I knew you  were  my  pet
Fm        Fm7/Ab        Bsus(b5)   Bbsus(b5)
I want to tell you      How much I love you
    C#7           C7       Fm     Fm7/Ab  -  Fm   Fm7/Ab
I'm drowning in a sea of   love

[Solo]
(Use a flanger to obtain some resemblance to original sound effect)
   Fm Fm7/Ab   C7        Fm Fm7/Ab  Bsus(b5)Bbsus(b5)   Fm Fm7/Ab     Bsus(b5)Bbsus(b5)   C#7  C7  Fm
e|-----4͠--4----------|-----4͠--4---------------------|-----4͠--4----------------------|---------------|
B|-/6--------6---5-6--|-/6--------6-------------------|-/6--------6--------------------|------/5---6͠--|
G|-------------5------|----------------4---3---1------|-----------------4---3---1------|--/5-----------|
D|--------------------|-------------------------------|--------------------------------|---------------|
A|--------------------|-------------------------------|--------------------------------|---------------|
E|--------------------|-------------------------------|--------------------------------|---------------|
  
(The C7 can always be altered to a C9, if preferred; it's a case of playing around.)

            
            
Suggest correction
Creating personal tab
Creating personal tab
You can edit any tab online and save it as your Personal.

You can edit, replace or remove any tab part or add personal notes – all changes will be seen only by you.

Personal tabs can be accessed anytime from any device, even offline.
Learn more »
Give kudos to tab author, rate the tab!
1 2 3 4 5
comments
print report bad tab
guest
You may want to rate the tab now too:
select rating
Wanna post a correction for this tab? Suggest correction