Oops, an error
Loading. Please wait.

Step Right Up bass

version 1
version 1

Whole song

Interactive

5,734 views 9 this week
4 commentsread comments
1 2 3 4 5
x 9
add to favorites
×
Save as Personal and add changes to this tab that will be seen only by you. Learn more ›
×
You can save this tab as Personal to edit and correct it or add notes. All changes will be seen only by you. Learn more »
launch autoscroll
font size
0
reset
guitar tuner
edit
Autoscroll
slow
fast
+/-
esc
set tempo
stop
Difficulty
intermediate
Hey, Not 100% sure of this but it sounds about right to me, so give it a go!

G--------------------------------------------------------------------|
D--8--------5--6-7-8---------/11-10-9-8------------------------------|
A-----3-4-5-----------3-4-5------------------------------------------|
E---6---------------6------------------------------------------------|
Suggest correction
Creating personal tab
Creating personal tab
You can edit any tab online and save it as your Personal.

You can edit, replace or remove any tab part or add personal notes – all changes will be seen only by you.

Personal tabs can be accessed anytime from any device, even offline.
Learn more »
comments
print report bad tab
4 comments total. Showing first comments.
0 reply
bartnavy 30 Dec 19, 2012 02:18 PM

I used your tab above, but I made a few changes after playing it over and over, give this a try...

G--------------------------------------------------------------------|
D--6--------3--4-5-6---------/10-9-8-6------------------------------|
A-----3-4-5-----------3-4-5------------------------------------------|
E---5---------------5------------------------------------------------|

0 reply
bartnavy 30 Dec 19, 2012 02:19 PM

I used your tab above, but I made a few changes after playing it over and over, give this a try...

G--------------------------------------------------------------------|
D--6--------3--4-5-6---------/10-9-8-6------------------------------|
A-----3-4-5-----------3-4-5------------------------------------------|
E---5---------------5------------------------------------------------|

+3 reply
TheMightyZang 10 Feb 28, 2014 12:00 AM

G--------------------------------------------------------------------|
D--8-------------6-7-8---------/11-10-9-8------------------------------|
A-----3-4-5--(8)--------3-4-5------------------------------------------|
E---6-----------------6------------------------------------------------|

Original sounded right to me with the exception of the 5 on the D which I replace like above, still good work getting the rest down.

guest
Wanna post a correction for this tab? Suggest correction