Oops, an error
Loading. Please wait.

Underground tab

version 1
version 1

Whole song

  • Includes tablature for lead guitar.

Interactive

496 views 6 this week
no commentswrite comment
1 2 3 4 5
2 more votes to show rating
add to favorites
×
Save as Personal and add changes to this tab that will be seen only by you. Learn more ›
×
You can save this tab as Personal to edit and correct it or add notes. All changes will be seen only by you. Learn more »
launch autoscroll
font size
0
reset
how to read this tab
guitar tuner
edit
Autoscroll
slow
fast
+/-
esc
set tempo
stop
Author
Difficulty
About this tab version
Includes tablature for lead guitar. Was this info helpful? Yes No
Song: Underground
Artist: Tom Waits
Album: Swordfishtrombones (1983)
Track: 1

This is my first tab, did it all by ear. Took about an hour. My apologies if some parts aren't exactly right;
the drums and vocals made it hard to get all of it perfect, but it seems just about 100%. If you find any
mistakes, please comment any corrections or email them to me, Danny Renkas, at agent.dgr.dabest@gmail.com


0:05
   Verse 1
e|--------------------------------------------------13-13-11----13-11-10-13-15-16----------------------------|
B|--------------8-8------------------13-12-13----------------------------------------------------------------|
G|--------------------------------------------12-12----------12-------------------------------------------17-|
D|-------10-10------9-9--10-10-13-13-------------------------------------------------------------------------|
A|-10-10--------------------------------------------------------------------------------------------14-15----|
E|--------------------------------------------------------------------------------16-15-13-15-13-15----------|


0:19
                                                                                           Verse 2
e|-----------------------------------------------------------------------------------------------------------|
B|----------------15--------------------------------------------------------------------11----------8-8------|
G|----17-------16-------17-16-17-15----------------------------------12-15------------8----------------------|
D|-17-------15----------------------------------------------------13----------10----8------------10-----9-9--|
A|-------------------15-------------------14-15-17----14-17-15-15----------10----10--------10-10-------------|
E|-------15-------------------------15-16----------15--------------------------------------------------------|


0:37                                                                                 0:48

e|----------------------------13-13-11----13-11-10-13-15-16-----------------------------------10-------------|
B|-------------13-12-13-----------------------------------------------------------R--------12----13-------11-|
G|----------------------12-12----------12-----------------------------------------E--13-10----------12-------|
D|-10-10-13-13--------------------------------------------------------------------S--------------------13----|
A|----------------------------------------------------------------------------14--T--------------------------|
E|----------------------------------------------------------16-15-13-15-13-15--------------------------------|


0:52
                                    Guitar Solo
e|----------------11-10-10-8-------------------------------------------------------13-13-------13------------|
B|---------------------------8------------------8-8-----------------13-12-13-------------16-------16-15-13---|
G|-12-13-12-10-12--------------8---------------------------------------------12-12----------12-------------14|
D|-------------------------------10----------10-----9-9-10-10-13-13------------------------------------------|
A|----------------------------------10-10-10-----------------------------------------------------------------|
E|-----------------------------------------------------------------------------------------------------------|


1:09
                                                                                          Verse 3
e|-14-15-----------------------------------------------------------------------------------------------------|
B|----------------18-16-------------15-13-------------11-13-12-11----------------------11-------8-8----------|
G|-------12----------------------16-------------12-15-------------12-10--------------------------------------|
D|----------------------17-18-15-------------13-------------------------13-10----10-13-------10-----9-9-10-10|
A|----------------------------------------15----------------------------------10----------10-----------------|
E|----------14-15--------------------------------------------------------------------------------------------|


1:26                                                                                 1:37

e|----------------------13-13-11----13-12-10-13-15-16-----------------------------------------10-------------|
B|-------13-12-13-----------------------------------------------------------------R--------12----13-------11-|
G|----------------12-12----------12-----------------------------------------------E--13-10----------12-------|
D|-13-13--------------------------------------------------------------------------S--------------------13----|
A|----------------------------------------------------------------------14-15-15--T--------------------------|
E|----------------------------------------------------16-15-13-15-13-15--------------------------------------|


       1:43
                        Outro
e|--------------------------------(8)-----------(8)-----------------|
B|--R-----------8--------------11----------8-11----------8-11-------|
G|--E-----8-10----10-8-------8-----------8-------------8------------|
D|--S--10------------------8----------10------------10-----------10-|
A|--T-------------------10------------------------------------10----|
E|------------------------------------------------------------------|

            
            
Suggest correction
Creating personal tab
Creating personal tab
You can edit any tab online and save it as your Personal.

You can edit, replace or remove any tab part or add personal notes – all changes will be seen only by you.

Personal tabs can be accessed anytime from any device, even offline.
Learn more »
Give kudos to tab author, rate the tab!
1 2 3 4 5
comments
print report bad tab
guest
You may want to rate the tab now too:
select rating
Wanna post a correction for this tab? Suggest correction