Oops, an error
Loading. Please wait.

Way Down In The Hole bass

27,847 views 12 this week
no commentswrite comment
1 2 3 4 5
x 7
add to favorites
×
Save as Personal and add changes to this tab that will be seen only by you. Learn more ›
×
You can save this tab as Personal to edit and correct it or add notes. All changes will be seen only by you. Learn more »
launch autoscroll
font size
0
reset
guitar tuner
edit
Autoscroll
slow
fast
+/-
esc
set tempo
stop
Author
Artist: Tom Waits (Greg Cohen on Bass)

Piece: Way Down In The Hole 
From the great album "Frank's Wild Years", also from season 2 of the brilliant
HBO series "The Wire"

Instrument: Upright Bass (Transcribed for precision electric bass)

Tabbed by: Zwicky

I am sorry that the tab is so long, the chorus has subtle variations and
if I had left it shorter it may have been very confusing.

Place massive emphasis on the E string when you play the 7th fret.  


Intro 00;00

G||-----------------||      G|-----------------|
D||9---7-7-9-----7--||      D|9---7-7----------|
A||---9-9-9---9-----|| x3   A|---9-9-9---------|
E||-----------------||      E|--------7--------|

Chorus 00:17

G||-----------------||      G|----7-7-9--------|
D||9---7-7-9-----7--||      D|---9-9-9------7--|
A||---9-9-9---9-----|| x2   A|7----------9-----|
E||-----------------||      E|-----------------|

G||-----------------||      G|--------------7--|
D||9---7-7-9-----7--||      D|9---7-7----9-----|
A||---9-9-9---9-----|| x2   A|---9-9-87--------|
E||-----------------||      E|-----------------|

 G|-----------------|       G|-----------------|  
 D|9---7-7----7--8--|       D|9---7-7----------|
 A|---9-9-98--------|       A|---9-9-9---------|
 E|-----------------|       E|--------7--------|

Chorus 00:48 

 G|-----------------|
 D|9---7-7-9-----7--|
 A|---9-9-9---9-----|
 E|-----------------|

 G|-----------------|       G|----7-7-9--------|
 D|9---7-7-9--------|       D|---9-9-9------7--|
 A|---9-9-9---9--8--|       A|7----------9-----|
 E|-----------------|       E|-----------------|

G||-----------------||      G|--------------7--|
D||9---7-7-9-----7--||      D|9---7-7----9-----|
A||---9-9-9---9-----|| x2   A|---9-9-87--------|
E||-----------------||      E|-----------------|

G||-----------------|       G|-----------------|
D||9---7-7----7--8--|       D|--9---7-7--------|
A||---9-9-98--------|       A|-----9-9-9-------|
E||-----------------|       E|----------7------|

Chorus (Lead guitar solo) 01:18 

 G|-----------------|
 D|9---7-7-9-----7--|
 A|---9-9-9---9-----|
 E|-----------------|

 G|-----------------|       G|----7-7-9--------|
 D|9---7-7-9--------|       D|---9-9-9------7--|
 A|---9-9-9---9--8--|       A|7----------9-----|
 E|-----------------|       E|-----------------|

G||-----------------||      G|--------------7--|
D||9---7-7-9-----7--||      D|9---7-7----9-----|
A||---9-9-9---9-----|| x2   A|---9-9-87--------|
E||-----------------||      E|-----------------|

G||-----------------|       G|-----------------|
D||9---7-7----7--8--|       D|9---7-7----7--8--|
A||---9-9-98--------|       A|---9-9-9---------|
E||-----------------|       E|--------7--------|

Chorus 1.47

 G|-----------------|
 D|9---7-7-9-----7--|
 A|---9-9-9---9-----|
 E|-----------------|

 G|-----------------|       G|----7-7-9--------|
 D|9---7-7-9--------|       D|---9-9-9------7--|
 A|---9-9-9---9--8--|       A|7----------9-----|
 E|-----------------|       E|-----------------|

G||-----------------||      G|--------------7--|
D||9---7-7-9-----7--||      D|9---7-7----9-----|
A||---9-9-9---9-----|| x2   A|---9-9-87--------|
E||-----------------||      E|-----------------|

G||-----------------|       G|-----------------|
D||9---7-7----7--8--|       D|9---7-7----------|
A||---9-9-98--------|       A|---9-9-9---------|
E||-----------------|       E|--------7--------|

Chorus 02:18

 G|-----------------|
 D|9---7-7-9-----7--|
 A|---9-9-9---9-----|
 E|-----------------|

 G|-----------------|       G|----7-7-9--------|
 D|9---7-7-9--------|       D|---9-9-9------7--|
 A|---9-9-9---9--8--|       A|7----------9-----|
 E|-----------------|       E|-----------------|

G||-----------------||      G|--------------7--|
D||9---7-7-9-----7--||      D|9---7-7----9-----|
A||---9-9-9---9-----|| x2   A|---9-9-87--------|
E||-----------------||      E|-----------------|

G||-----------------|       G|-----------------|
D||9---7-7----7--8--|       D|--9---7-7--------|
A||---9-9-98--------|       A|-----9-9-9-------|
E||-----------------|       E|----------7------|

Chorus 2.47

 G|-----------------|
 D|9---7-7-9-----7--|
 A|---9-9-9---9-----|
 E|-----------------|

 G|-----------7--8--|       G|97--7-7-9--------|
 D|9---7-7-9--------|       D|--99-9-9------7--|
 A|---9-9-9---------|       A|-----------9-----|
 E|-----------------|       E|-----------------|

G||-----------------||      G|--------------7--|
D||9---7-7-9-----7--||      D|9---7-7----9-----|
A||---9-9-9---9-----|| x2   A|---9-9-87--------|
E||-----------------||      E|-----------------|

G||-----------------|       G|-----------------|
D||9---7-7----7--8--|       D|9---7-7----------|
A||---9-9-98--------|       A|---9-9-9---------|
E||-----------------|       E|--------7--------|

Outro 3.18

 G|-----------------|
 D|9---7-7-9-----7--|
 A|---9-9-9---9-----|  x3 (Repeat to fade)
 E|-----------------|


            
            
Suggest correction
Creating personal tab
Creating personal tab
You can edit any tab online and save it as your Personal.

You can edit, replace or remove any tab part or add personal notes – all changes will be seen only by you.

Personal tabs can be accessed anytime from any device, even offline.
Learn more »
comments
print report bad tab
guest
You may want to rate the tab now too:
select rating
Wanna post a correction for this tab? Suggest correction