Oops, an error
Loading. Please wait.

Como Yo Nadie Te Ha Amado Tab

61 views 1 this week
no commentswrite comment
1 2 3 4 5
3 more votes to show rating
add to favorites
launch autoscroll
font size
0
reset
how to read this tab
guitar tuner
×
Best way to learn
"Como Yo Nadie Te Ha Amado"
Autoscroll
slow
fast
+/-
esc
set tempo
stop
antes que nada esta cancion se la quiero dedikar
a una niña
que es super linda fabiola cyndi

E----------7------------6-----------------------------------------
B--9---------9-----7-------7-----------7--------9--7--------------
G----9---------9-----8-------------------7------------------------
D------9---------------8-------------------7----------------------
A--7---------------6-------------------5------5-------------------
E-----------------------------------------------------------------


E--------5---------------------5----------------------------------
B-5---------5---------5----------5-----9--------------------------
G---6---------6----------5----------5-----9-----------------------
D-----7---------------------7----------------9--------------------
A--------------------------------------7--------------------------
E-5-------------------5-------------------------------------------


E------------------------------------------7---------------------
B------------------------------7-----------7---------------------
G---------------------------------8--------9---------------------
D---9h109----------------------------9-----7---------------------
A------------9s11-------9------------------9---------------------
E------------------------------------------7---------------------

E                      D#m     D
Yo no vi las flores marchitar, ni ese frio de tus
 A             Am   E                  B      B7sus4  B7
ojos al mirar,  no vi la realidad, me ibas a dejar
E                       D#m                 D
Dicen que la vida, baby, no es como la ves, para aprender
     A        Am              E            B7sus4       B7
hay que caer, para ganar hay que perder, lo di todo por ti.


  A             C#m                     B
Llore y llore y jure que no iba a perderte
   A               C#m                    B     Asus2
Trate y trate de negar este amor tantas veces, baby
        E                  B          C#m                 A
Si mis lagrimas fueron en vano si al final yo te ame demasiado
     E        B                  Asus2
como yo, como yo, nadie te ha amado.
E                  D#m    D                  A
Cada hora una eternidad, cada amanecer un comenzar,
 Am          E          B        B7sus4  B7
ilusiones nada mas, que facil fue soñar.
 E                 D#m      D        A           Am
Tantas noches de intimidad, parecian no acabar, nos
           E          B7sus4   B7
dejamos desafiar, hoy nada es igual
A                    C#m                     B
Se que en verdad, el amor al final siempre duele
       A                 C#m                  B     Asus2
no lo puede salvar y hoy voy a pagarlo con creses, baby.
         E                 B            C#m
Si mis lagrimas fueron en vano, si al final yo te ame
   A            E        B                 Asus2
demasiado, como yo, como yo, nadie te ha amado.
     E                  B          C#m            A
Esta vez la pasion ha ganado y por eso vivo esperando
     E        B                Asus2
como yo, como yo nadie te ha amado.

solo

E---------------------------------------------------------------------
B---12---10--------------------------------------------14--15--14-----
G--------------13--11--------14-----11--------------------------------
D--------------------------------------14--12---11--14----------------
A---------------------------------------------------------------------
E---------------------------------------------------------------------

E---------------------------12-----12--10-----------------------------
B-12----12--15-12----12-15----------------12-----10-12-10-------------
G----14-----------14---------------------------------------11-9-11-9--
D---------------------------------------------------------------------
A---------------------------------------------------------------------
E---------------------------------------------------------------------


E-----------------------------------------------9---9--10--10-10-12-10-
B---------------------14--15--14--------10---10---10-------------------
G------------------------------------11----11--------------------------
D--12-9-12-9----------------------12-----------------------------------
A-------------12-9-----------------------------------------------------
E----------------------------------------------------------------------

  A             C#m                    B
Llore y llore y jure que no iba a perderte.
   A              C#m                     B      Asus2
Trate y trate de negar este amor tantas veces, baby.
       E                  B           C#m
Si mi lagrimas fueron en vano, si al final yo te ame
   A            E        B               Asus2
demasiado, como yo, como yo, nadie te ha amado.
     E        B                   Asus2-Am-E
Como yo, como yooooo,nadie te ha amado

6------l-------l-------l-------l
5------l-------l-------l-------l
4------l-------l---2---l-------l  (Asus2)
3------l-------l---3---l-------l
2------l-------l-------l-------l
1------l-------l-------l-------l
 tras4   tras3   tras2   tras1

        (ºº CEJILLA)

6l------l-------l------l---ºº---l
5l------l-------l------l---ºº---l
4l------l-3-----l------l---ºº---l(B7sus4)
3l------l-------l------l---ºº---l
2l--4---l-------l------l---ºº---l
1l------l-------l------l---ºº---l
  tras5   tras4  tras3  traste2

ESTO ES TODO
ESTA ROLA SE LA DEDICO A
 """"fabiola cortes garcia""""
DONDE QUIERA QUE TE ENCUENTRES
prinsesa
Suggest correction
Give kudos to tab author, rate the tab!
1 2 3 4 5
comments
print report bad tab
guest
You may want to rate the tab now too:
select rating
Wanna post a correction for this tab? Suggest correction