Oops, an error
Loading. Please wait.

Hasta Que Amanezca Tab

29 views 1 this week
no commentswrite comment
1 2 3 4 5
3 more votes to show rating
add to favorites
launch autoscroll
font size
0
reset
how to read this tab
guitar tuner
Autoscroll
slow
fast
+/-
esc
set tempo
stop
Help us to improve Ultimate-Guitar.com Take our survey!
×
HASTA Q AMANESCA
Esta rola la saque del disco ebriamente se escucha shida tóquenla en
Acústica Y acompáñense con la canción esta fácil cualquier
duda o comentario Con el aimar en  aimarcaifan@


    E                        A
Brindemos juntos hasta que amanezca
   E                        A
Bebamos ron y un purgante de amor
      F#m                   Bm      D            E          A
Por que me esta matando la tristeza pero no le perdono su traición

E-A-E-A-F#m-Bm-D-E-A-E

E|--------------------------|--------------------------------------
B|---55555555--7-5-33-2/3/2-|--5555555--7-5-33/5/3/2---------------
G|--------------------------|--------------------------------------
D|--------------------------|--------------------------------------
A|--------------------------|--------------------------------------
E|--------------------------|--------------------------------------

E|--------------------------|------------------|-------------------
B|---2222222--55-3-22-3/2-0-|--3333--5-2-0--0--|-0-----------------
G|--------------------------|--------------2-2-|-1-----------------
D|--------------------------|------------------|-2-----------------
A|--------------------------|------------------|-2-----------------
E|--------------------------|------------------|-------------------


   A        E             A
La deje que entrara a mi vida
    A                 E
pense que iva a funcionar
D               E            A   F#m
Nunca pensé que ella me fallaría
  Bm                  E        A      E
Se que en estos juegos no debo jugar
A        E           A
Amigo perdona si te ofendo
  A                        E
Pero también tengo ganas de llorar
D              E           A    F#m
sabes que yo comprendo tu lamento
   Bm            E           A      E
Siempre hay una mujer que paga mal


    E                        A
Brindemos juntos hasta que amanezca
   E                        A
Bebamos ron y un purgante de amor
      F#m                   Bm      D            E          A
Por que me esta matando la tristeza pero no le perdono su traición


E|--------------------------|--------------------------------------
B|---55555555--7-5-33-2/3/2-|--5555555--7-5-33/5/3/2---------------
G|--------------------------|--------------------------------------
D|--------------------------|--------------------------------------
A|--------------------------|--------------------------------------
E|--------------------------|--------------------------------------

E|--------------------------|------------------|-------------------
B|---2222222--55-3-22-3/2-0-|--3333--5-2-0--0--|-0-----------------
G|--------------------------|--------------2-2-|-1-----------------
D|--------------------------|------------------|-2-----------------
A|--------------------------|------------------|-2-----------------
E|--------------------------|------------------|-------------------


  A       E            A
Recuerdo que ella me decía
  A                        E
Que nunca habría otro en mi lugar
D           E        A   F#m
No se lo que le pasaría
  Bm           E         A
No se en que yo le pude fallar
   A         E           A
Hay amigo tu sabes te comprendo
   A                   E
Alguna ves a mi me pudo pasar
  D             E               A       F#m
Alguien me dijo una vez algo muy cierto
  Bm                E       A    E
Por una mujer nunca debes llorar

coro ...
Suggest correction
Give kudos to tab author, rate the tab!
1 2 3 4 5
comments
print report bad tab
guest
You may want to rate the tab now too:
select rating
Wanna post a correction for this tab? Suggest correction