Oops, an error
Loading. Please wait.

Padre Nuestro Tab

by Toma II
68 views 1 this week
no commentswrite comment
1 2 3 4 5
3 more votes to show rating
add to favorites
launch autoscroll
font size
0
reset
how to read this tab
guitar tuner
×
Best way to learn
"Padre Nuestro"
Autoscroll
slow
fast
+/-
esc
set tempo
stop
Tarde algo de tiempo escribiendo la tab asi que espero les guste
es tal y como viene en el cd "tiempo" voten subire tabs
originales de la banda asi que no busquen mas si quieren
la transcripcion correcta ok.
sitio oficial de la banda: 

~: vibrato
/: deslizar
B: Bend
p: pull off
h: hammer on
(): nota fantasma
t :taping

Intro: Guitarra acustica: acompañamiento:D-A-G#-F#-Bm-E-A
            D                                  A
E|----5-4-2-4-4/5----5-5-4-2-4-4/5----5-5-7--9--9-----------
B|-6--7-5-3-5-5/7----7-7-5-3-5-5/7----7-7-9-10-10---9-7---5-
G|-7-----------------------------------------------9--7--6--
D|----------------------------------------------------------
A|----------------------------------------------------------
E|----------------------------------------------------------


E--------------------------------------------------------
B-5-5/7-5-3-5-5/7----7-7-5-3-5/7---7-7-9-9/9---9-7--5----
G-6-6/7-6-4-6-6/7----7-7-6-4-6/7---7-7-9-9/10-9--7-6-----
D--------------------------------------------------------
A--------------------------------------------------------
E--------------------------------------------------------


E---9--10-10/11-11--10-9--7/9-9/7---7---5--|
B------------------------------------------|
G-/9---11-11/13-13-11--9-7--------7---6----|
D------------------------------------------|
A------------------------------------------|
E------------------------------------------|

        A                      F#m
Padre nuestro,si estas en el cielo ,
                Bm  B-C#-D               E
si amarla es pecado       llevame al infierno
               A                  F#m
esque ya no quiero vivir sin su amor,
              Bm    B-C#-D            E
esque le ha llegado      duro al corazon,

        D                  A-G#-F#
Padre nuestro dimelo que hechooo,
             Bm          E            A
si yo no meresco ser feliz por eso lloro
                   D
Disen que ella es mala que no vale nada,
              A     G#m        F#m
que va si yo no he sido el mejor
               Bm                   E
no importa que alguien able de los dos
                A      G#      F#
si aqui lo que vale es el corazon
                Bm             E            A
si aqui lo que vale es el corazon por eso lloro.


Acompañamiento:D-A-G#-F#-Bm-E-A-G#-F#-Bm-E-A

Solo:

E|----5-4-2-4-4/5--5-5-4-2-4-4/5-5-5-7--9-9----------------
B|----7-5-3-5-5/7--7-7-5-3-5-5/7-7-7-9-10-10---------------
G|--6-----------------------------------------9-9p7-7/6-6~-
D|--7------------------------------------------------------
A|---------------------------------------------------------
E|---------------------------------------------------------


E----------------------------------------------------------
B----------------------------------------------------------
G-6-7-6h7---6h7--7-7p6--6h7--7-7-9-11-11-9-9-7-7p6-7/9~----
D---------9-----------9------------------------------------
A----------------------------------------------------------
E----------------------------------------------------------


E----------------------------------------------------------
B----------------------------------------------------------
G---6-7-9-9/11p7-7-7-6h7p6---------------------------------
D-9-------------------------9--9b(11)r-7----9b(11)r-7---9-7
A---------------------------------------9------------9-----
E----------------------------------------------------------


E-----------------------------------------------------------
B----------------/10-10~--9-10-12-12/10-9-12b(14)-12b(14)r12
G---6-7p6h7p6h7---------------------------------------------
D-9---------------------------------------------------------
A-----------------------------------------------------------
E-----------------------------------------------------------


E--------------------------12------12------12------12-
B-10-9-10p9--------10-9-10----10-9----10-9----10-9----
G-----------9-----------------------------------------
D-----------------------------------------------------
A-----------------------------------------------------
E-----------------------------------------------------


E-10-9----------------------------------12-10-9------------|
B------12-10-9-12-12b(14)r12-10-12-12~----------12-10-9-10~|
G----------------------------------------------------------|
D----------------------------------------------------------|
A----------------------------------------------------------|
E----------------------------------------------------------|

        A                      F#m
Padre nuestro,si estas en el cielo Etc...

Lo demas va igual, bueno espero les aya gustado voten y entren a
 saludos.

Intro guitarra acustica:Jose Ruiz
Solo guitarra electrica:Marco Sanches
Transcripcion:Gerardo Romero
Suggest correction
Give kudos to tab author, rate the tab!
1 2 3 4 5
comments
print report bad tab
guest
You may want to rate the tab now too:
select rating
Wanna post a correction for this tab? Suggest correction