Oops, an error
Loading. Please wait.

Fantasier Tab

7 views 1 this week
no commentswrite comment
1 2 3 4 5
3 more votes to show rating
add to favorites
launch autoscroll
font size
0
reset
how to read this tab
guitar tuner
Autoscroll
slow
fast
+/-
esc
set tempo
stop
Help us to improve Ultimate-Guitar.com Take our survey!
×
Author
Difficulty
Capo
novice
7th fret
Capo 7.


[Intro]


Version 1:
e|---------3-------------------0-----------3---------3-|
B|-0---0-------------------------0-----0-----0---0-----|
G|-----------0p2---0---0---0---------------------------|
D|---0---0-------2---2---2---2-------0---0-----0---0---|
A|-----------------------------------------------------|
E|-3-------3-3p2-------0-------0-2p3-------3-3-------3-|


Version 2:
e|---------3--------------------0-----------3---------3-|
B|-0---0--------------------------0-----0-----0---0-----|
G|------------------0---0---0---------------------------|
D|---0---0--------0---0---2---2-------0---0-----0---0---|
A|------------------------------------------------------|
E|-3-------3-3h/5-------0-------0-2p3-------3-3-------3-|



************************************

| p  Pull-off
| h  Hammer-on

************************************
Suggest correction
Give kudos to tab author, rate the tab!
1 2 3 4 5
comments
print report bad tab
guest
You may want to rate the tab now too:
select rating
Wanna post a correction for this tab? Suggest correction