Oops, an error
Loading. Please wait.

Sommaren 77 chords

100 views 3 this week
no commentswrite comment
1 2 3 4 5
3 more votes to show rating
add to favorites
×
Save as Personal and add changes to this tab that will be seen only by you. Learn more ›
×
You can save this tab as Personal to edit and correct it or add notes. All changes will be seen only by you. Learn more »
launch autoscroll
font size
0
reset
transpose
0
reset
display chords
guitar tuner
edit
Autoscroll
slow
fast
+/-
esc
set tempo
stop
Strumming
There is no strumming pattern for this song yet. and get +5 IQ
[Intro]

e|---2-2-3-5-3-2---0-0-2-3-2-0-------0-3-2-0-----------0-------------|
B|---3-3-----------2-2-------------3---------3-2---2p3---------------|
G|---2-2-------------------------0---------------2-2-----2-----------|
D|-0-----------------------------------------------------------------|
A|---------------0-------------2-------------------0-----------------|
E|-------------------------------------------------------------------|

e|---2-2-3-5-3-2---0-0-2-3-2-0-------0-3-2-0-----------0-------------|
B|---3-3-----------2-2-------------3---------3-2---2p3---------------|
G|---2-2-------------------------0---------------2-2-----2-----------|
D|-0-----------------------------------------------------------------|
A|---------------0-------------2-------------------0-----------------|
E|-------------------------------------------------------------------|

e|---2-2---------------------------|
B|---3-3-----2-2-----3-3-----2-2---|
G|---2-2-2---2-2-2---0-0-----2-2-2-|
D|-0-----------------0-0-0---------|
A|---------0---------------0-------|
E|-----------------3---------------|

e|---2-2---------------------------|
B|---3-3-----2-2-----3-3-----2-2---|
G|---2-2-2---2-2-2---0-0-----2-2-2-|
D|-0-----------------0-0-0---------|
A|---------0---------------0-------|
E|-----------------3---------------| 


[Refrain]

e|-----2-------2-------0-------0-----------------------0---------0---|
B|-----3-------3-------2-------2-------3-------3-------2---2p3-------|
G|---2---2---2---2---2---2---2---2-----4-------4-----2---2-2---2---2-|
D|-0-------0-------------------------4---4---4---4-------------------|
A|-----------------0-------0-------2-------2-------0-------0---------|
E|-------------------------------------------------------------------|
 

[Intro]

D A G A (x4)


[Verse 1]

 D      A
Sommaren 77
 G              A   G
Var du gömd hos oss
        A         Hm  A
I ett radhus med altan
 D                  A
Du hade flytt ditt land
 G              A  G
och kommit ända hit
           A            Hm  A
Och sen tvingats fly din man
 G         A
Jag var fem år
 G              A       Hm   A
och du satt hos mig en kväll
 D                         G
Och sa: "Glöm aldrig bort det här"


[Chorus]

 D                  A
Om du någon gång, Måste lämna allt
 Hm               A
Då är mitt hem, ditt hem
 D                  A
Om du någon gång, måste lämna allt
 Hm                A
Då är mitt land, ditt land


[Verse 2]
(same chords as in verse 1)

Ikväll hörs grindarna
Rasla till och låsas
Jag ser flygplans ljus
Vad som hände dig sen
Vet vi inget om
Г„r du där ute nu?
Jag är en man idag
jag har pengar, jag har jobb
Har ett hem och mer än då


[Chorus]

 D                  A
Om du någon gång, Måste lämna allt
 Hm               A
Då är mitt hem, ditt hem
 D                  A
Om du någon gång, måste lämna allt
 Hm                A
Då är mitt land, ditt land


[Outro]

 D           G
Planet landar nu
 A              G   A
Polis och hundar här
             Hm         A   Hm 
I Sverige och kallt och runt
 D            G
Planet öppnas nu
 A              G   A
Polis och hundar här
           Hm           A  Hm A D
Ser dig gå av och föras bort



************************************

| p  Pull-off

************************************
Suggest correction
Creating personal tab
Creating personal tab
You can edit any tab online and save it as your Personal.

You can edit, replace or remove any tab part or add personal notes – all changes will be seen only by you.

Personal tabs can be accessed anytime from any device, even offline.
Learn more »
Give kudos to tab author, rate the tab!
1 2 3 4 5
comments
print report bad tab
guest
You may want to rate the tab now too:
select rating
Wanna post a correction for this tab? Suggest correction