Oops, an error
Loading. Please wait.

Goodbye Blue Sky tab

version 1
version 1

Whole song

Interactive

7,191 views 3 this week
1 commentread comment
1 2 3 4 5
x 3
add to favorites
×
Save as Personal and add changes to this tab that will be seen only by you. Learn more ›
×
You can save this tab as Personal to edit and correct it or add notes. All changes will be seen only by you. Learn more »
launch autoscroll
font size
0
reset
how to read this tab
guitar tuner
edit
Autoscroll
slow
fast
+/-
esc
set tempo
stop
--------------------------------------------------------------------
     Goodbye Blue Sky - Pink Floyd (Arranged by Tomi Paldanius)
--------------------------------------------------------------------

Tabbed by: Karpassieni
Tuning: C# G# C# F# A# D#

|---------------------------------------------------------------|
|---------------------------------------------------------------|
|-------------0-------------------------------0-----------------|
|-----4---------------4-------4-------4---------------4-------4-|
|---------5-------5-------5---------------5-------5-------5-----|
|-0-------------------------------0-----------------------------|

|--------------------------------------------------------------------|
|--------------------------------------------------------------------|
|-------------0-------------------------------0----------------------|
|-----4---------------4-------4-------4---------------4---2---0------|
|---------5-------5-------5---------------5-------5--------------2-0-|
|-0-------------------------------0----------------------------------|

|---------------------------------------------------------------------|
|---------------------------------------------------------------------|
|-5--5--5--------4--4-----------------------5--5--5--------4--4-------|
|---------------------------------------------------------------------|
|-0-----0-----0-----0----0----0----0---0----0-----0-----0-----0-----0-|
|---------------------------------------------------------------------|

|--------------------------------------------------------------|
|--------------------------------------------------------------|
|-------------------5--5--5--------4--4--------4-----5-----6---|
|--------------------------------------------------------------|
|-0-----0-----0-----0-----0-----0-----0-----0-----0-----0------|
|--------------------------------------------------------------|

|-----------------------------------------------------------------|
|-3---------------------------------------------------------------|
|---------0---------------0---------------0---------------0-------|
|-----4-------4-------4-------4-------4-------4-------4-------4---|
|-----------------5-------------------------------5---------------|
|-0-------------------------------0-------------------------------|

|----5------3--------2--------0---------------------------------------|
|----7------5--------3--------2-----2h3p2--0--------------------------|
|----7------6--------4--------2-----2----------------0-----------0----|
|-------------------------------------------------4-----4-----4-----4-|
|----------------------------------------------2-----------2----------|
|-0------0-----0--0-----0--0-----0------------------------------------|

|-----------------------------5-----3--------2--------0--------------|
|-----------------------------7-----5--------3--------2-----2h3p2--0-|
|-------0-----------0---------7-----6--------4--------2-----2--------|
|----4-----4-----4-----4---------------------------------------------|
|-2-----------2------------------------------------------------------|
|--------------------------0-----0-----0--0-----0--0-----0-----------|

|--------------------------------------------------|
|--------------------------------------------------|
|-------0-----------0-----------0-----------0------|
|----4-----4-----4-----4-----4-----4-----4-----4---|
|-2-----------2-----------2-----------2------------|
|--------------------------------------------------|

|----5------3--------2--------0---------------------------------------|
|----7------5--------3--------2-----2h3p2--0--------------------------|
|----7------6--------4--------2-----2----------------0-----------0----|
|-------------------------------------------------4-----4-----4-----4-|
|----------------------------------------------2-----------2----------|
|-0------0-----0--0-----0--0-----0------------------------------------|

|-----------------------------8--8--8--8--8--8--8--8s7--7-------------|
|-----------------------------5--5--5--5--5--5--5--5s4--4-------------|
|-------0-----------0-------------------------------------------------|
|----4-----4-----4-----4----------------------------------------------|
|-2-----------2------------0-----0-----0-----0-----0----0---0---0---0-|
|---------------------------------------------------------------------|

|----8--8--8--8--8--8--8--8s7--7-------------------|
|----5--5--5--5--5--5--5--5s4--4-------------------|
|--------------------------------------------------|
|--------------------------------------------------|
|-0-----0-----0-----0-----0----0-----0-----0-----0-|
|--------------------------------------------------|

|----8--8--8--8--8--8--8--8s7--7--7--7s5---5--|
|----5--5--5--5--5--5--5--5s4--4--4--4s2---2--|
|---------------------------------------------|
|---------------------------------------------|
|-0-----0-----0-----0-----0----0-----0-----0--|
|---------------------------------------------|

|-5--5s3--3--3-----------------------------------------2-----2--|
|-2--2-------------7--7--7--7s5---5--5--5--3--2--0--------------|
|------------------4--4--4--4s2---2--2--------------------------|
|---------------------------------------------------------4-----|
|----0----0-----0-----0-----0-----0-----0-----------2-----------|
|---------------------------------------------------------------|

|----------------------------------------------------------------|
|----------------------------------------------------------------|
|-------0-----------0-----------0---------------0----------------|
|----4-----4-----4-----4-----4-----4------4-----------4-----4----|
|-2-----------2-----------2------------------5-----5-----5-------|
|--------------------------------------0-------------------------|

|------------------------------------------------------------------------|
|------------------------------------------------------------------------|
|----------0-----------------------0-----------------------0-------------|
|----4-----------4-----4-----4-----------4-----4-----4-----------4-----4-|
|-------5-----5-----5-----------5-----5-----5-----------5-----5-----5----|
|-0-----------------------0-----------------------0----------------------|

|----5------3--------2--------0---------------------------------------|
|----7------5--------3--------2-----2h3p2--0--------------------------|
|----7------6--------4--------2-----2----------------0-----------0----|
|-------------------------------------------------4-----4-----4-----4-|
|----------------------------------------------2-----------2----------|
|-0------0-----0--0-----0--0-----0------------------------------------|

|-----------------------------5-----3--------2--------0--------------|
|-----------------------------7-----5--------3--------2-----2h3p2--0-|
|-------0-----------0---------7-----6--------4--------2-----2--------|
|----4-----4-----4-----4---------------------------------------------|
|-2-----------2------------------------------------------------------|
|--------------------------0-----0-----0--0-----0--0-----0-----------|

|--------------------------------------------------|
|--------------------------------------------------|
|-------0-----------0-----------0-----------0------|
|----4-----4-----4-----4-----4-----4-----4-----4---|
|-2-----------2-----------2-----------2------------|
|--------------------------------------------------|


|----8--8--8--8--8--8--8--8s7--7--------------------8--8--8--8s10--|
|----5--5--5--5--5--5--5--5s4--4--------------------5--5--5--5s7---|
|------------------------------------------------------------------|
|------------------------------------------------------------------|
|-0-----0-----0-----0-----0----0----0----0----0---0----0-----0-----|
|------------------------------------------------------------------|

|10s8---8s7---7----------------------8--8--8--8--8--8--8--8s7--7-------|
|-7s5---5s4---4----------------------5--5--5--5--5--5--5--5s4--4-------|
|----------------------------------------------------------------------|
|----------------------------------------------------------------------|
|-0-----0-----0----0----0----0----0-----0-----0-----0-----0----0----0--|
|----------------------------------------------------------------------|

|-8-----9--10-----------------------------------------------|
|-5-----6---------------------------------------------------|
|--------------------0-----------------------0--------------|
|-----------------0-----0-----0-----------0-----0-----0-----|
|----0---------9-----------9-----9-----9-----------9-----9--|
|-----------0-----------------------0-----------------------|

|----5-----3--------7--------5-----------5-----3--------7--------5-|
|----7-----5--------8--------7-----------7-----5--------8--------7-|
|----7-----6--------9--------7-----------7-----6--------9--------7-|
|------------------------------------------------------------------|
|------------------------------------------------------------------|
|-0-----0-----0--0-----0--0-----0--0--0-----0-----0--0-----0--0----|

|----5--3-----------------------5--3-----------------------------|
|----5--4-----------------------5--4-----------------------------|
|----7--5-----------------------7--5-----------------------------|
|----------------------------------------------------------------|
|-------------------------------------------------------5p3p0----|
|-0--0-----0--0--0--0--0--0--0--0-----0--0--0--0--0--0---------3-|


|------------------------------------------------------------------------|
|------------------------------------------------------------------------|
|----------0-----------------------0-----------------------0-------------|
|----4-----------4-----4-----4-----------4-----4-----4-----------4-----4-|
|-------5-----5-----5-----------5-----5-----5-----------5-----5-----5----|
|-0-----------------------0-----------------------0----------------------|

|------------|
|------------|
|------------|
|------------|
|------------|
|-0----------|
Suggest correction
Creating personal tab
Creating personal tab
You can edit any tab online and save it as your Personal.

You can edit, replace or remove any tab part or add personal notes – all changes will be seen only by you.

Personal tabs can be accessed anytime from any device, even offline.
Learn more »
Give kudos to tab author, rate the tab!
1 2 3 4 5
comments
print report bad tab
1 comment total.
0 reply
oscaboxa 10 May 27, 2013 10:39 PM

a good arrangement I have enjoyed learning it,cheers, oscaboxa.

guest
You may want to rate the tab now too:
select rating
Wanna post a correction for this tab? Suggest correction