Oops, an error
Loading. Please wait.

Livin On A Prayer Tab

version 1
version 1

Whole song

Interactive

86,865 views 27 this week
3 commentsread comments
1 2 3 4 5
x 8
add to favorites
launch autoscroll
font size
0
reset
how to read this tab
guitar tuner
×
Best way to learn
"Livin On A Prayer"
Autoscroll
slow
fast
+/-
esc
set tempo
stop
Author
E  E  E  E  E  E  E  E     E  E  E  E  E  E  E  E   
e|--0-----------------------|--L-----------------------|
B|--0-----------------------|--L-----------------------|
G|--0-----------------------|--L-----------------------|
D|-----2-----0-----------0--|-----2-----0-----------0--|
A|--------2-----------2-----|--------2-----------2-----|
E|--0-----------0--0--------|--0-----------0--0--------|

    E  E  E  E  E  E  E  E       E  E  E  E  E  E  E  E   
e|--0-----------------------|----0-----------------------|
B|--1-----------------------|--2g3-----------------------|
G|--0-----------------------|--1g2-----------------------|
D|-----2-----0-----------0--|-------2-----0-----------0--|
A|--------2-----------2-----|----------2-----------2-----|
E|--0-----------0--0--------|----0-----------0--0--------|

    E  E  E  E  E  E  E  E     E  E  E  E  E  E  E  E   
e|--0-----------------------|--L-----------------------|
B|--0-----------------------|--L-----------------------|
G|--0-----------------------|--L-----------------------|
D|-----2-----0-----------0--|-----2-----0-----------0--|
A|--------2-----------2-----|--------2-----------2-----|
E|--0-----------0--0--------|--0-----------0--0--------|

       E  E  E   E  E  E  E  E     E  E  E  E  E  E  E  E   
e|---2g3--3--2p--0--0-----0--0--|--L-----------------------|
B|---------------------3--------|-----0--L-----------------|
G|*-----------------------------|--------------------------|
D|*-------2------0-----------0--|-----2-----0-----------0--|
A|-----------2------------2-----|--------2-----------2-----|
E|-----0------------0--0--------|--0-----------0--0--------|

      E  E  E   E  E  E  E  E      E  E  E  E  E  E  E  E   
e|--2g3--3--2p--0--0-----0--2h--|--3--2-----0--L-----------|
B|------------------------------|--------------------0-----|
G|------------------------------|--------------------------|
D|-------2------0-----------0---|-----2-----0-----------0--|
A|----------2------------2------|--------2-----------2-----|
E|----0------------0--0---------|--0-----------0--0--------|

    E  E  E  E  E  E  E  E      E  E  E  E  E  E  E  E   
e|---------------------------|--------------------------|
B|---------------------------|--3-----------L--0--------|
G|--2--0--L------------------|-----------------------2--|
D|---------------------------|--4-----------------------|
A|--3--3--3--3--3--3--3--3s--|--5--5--5--5--5--5--5--5--|
E|---------------------------|--------------------------|

    E  E  E  E  E  E  E  E     E  E  E  E  E  E  E  E     
e|--------------------------|---------------------------|
B|-----0--L-----------------|---------------------------|
G|--L-----------------------|--------------------------*|
D|-----2-----0-----------0--|-----2-----0-----------0--*|
A|--------2-----------2-----|--------2-----------2------|
E|--0-----------0--0--------|--0-----------0--0---------|

    E  E  E  E  E  E  E   E     E  E  E  E  E  E  E  E   
e|---------------------------|--------------------------|
B|--------------0------------|-----0--------------------|
G|--------0-----------0h--2--|--L--------0--L-----------|
D|-----4-----4-----4---------|-----2-----0-----------0--|
A|--5------------------------|--------2-----------2-----|
E|---------------------------|--0-----------0--0--------|

    E  E  E  E  E  E  E  E     E  E  E  E  E  E  E   E   
e|--------------------------|--0--------------x---------|
B|--------------0--3--3--0--|-----------3--L--x--3p--0--|
G|-----------0--------------|-----------2-----x---------|
D|-----2-----0-----------0--|-----------0--L--x--0------|
A|--------2-----------2-----|--3--2--0--------x---------|
E|--0-----------0--0--------|-----------------x---------|

    E  S  S E  E  Q    E  E     E  E  E  E  E  E  E   E   
e|----------0-----0----x--0--|--L--0--x--2--L------------|
B|--3-------------0----x--1--|--L--1--x--3--L-----3p--0--|
G|----------------0----x--0--|--L--0--x--2--L------------|
D|-----3s-4-------2----x--2--|--L--2--x--0--L--0--L------|
A|----------------2----x--3--|--L-----x------------------|
E|-------------0--0----x-----|--------x------------------|

    E  S  S E  E  Q    E  E     E  E  E  E  Q    E   E   
e|----------0-----0----x--0--|--L--0--x--2--L-----------|
B|--3-------------0----x--1--|--L--1--x--3--L----3p--0--|
G|----------------0----x--0--|--L--0--x--2--L-----------|
D|-----3s-4-------2----x--2--|--L--2--x--0--L-----------|
A|----------------2----x--3--|--L-----x-----------------|
E|-------------0--0----x-----|--------x-----------------|

    E  E  E  E  E  E  E   E     E   E  E  E  E  E  E  E   
e|--------0------------------|------------------0--0--0--|
B|--3-----------0------------|---------------1--1--1--1--|
G|--------------------2p--0--|--2p--0-----0--0--0--0--0--|
D|-----0-----0---------------|---------2--2--2--2--2--2--|
A|---------------------------|--3------3--3--3--3--3--3--|
E|--------------0--0--0------|---------------------------|

                      golpe                              
    |----3----|                                            
    Q    Q    Q    Q    E     E     Q    E  Q    E  E  E   
e|--3----2----0----2-------------|--3----x--3----3--x--3--|
B|--3----3----3----3-------------|--0----x--1----1--x--3--|
G|--2----2----2----2-------------|--0----x--0----0--x--2--|
D|--0----0----0----0----x-----x--|--x----x--2----2--x--0--|
A|-------------------------------|--2----x--3-------x-----|
E|-------------------------------|--0----x----------------|

    E  E  Q    Q    Q       Q    E   E   E   E  E  E     E  E  Q    Q     Q     
e|--L--3--2----0----2----|--7----x---8---L---8--x--8--|--L--8--7----0-----0----|
B|--L--3--3----3----3----|--0----x---8---L---8--x--8--|--L--8--8----8----10----|
G|--L--2--2----2----2----|--0----x---9---L---9--x--7--|--L--7--7----7-----7----|
D|--L--0--0----0----0----|--0----x--10---L--10--x--0--|--L--0--0----0-----0----|
A|-----------------------|--x----x--10---L------x-----|------------------------|
E|-----------------------|--3----x---8---L------x-----|------------------------|

    E  E   E  Q    E  E  E     E  E  Q    Q    Q       Q    E   E   E   E  E  E   
e|--3--3s--5--3----3--x--3--|--L--3--2----0----2----|--7----x---8---L---8--x--8--|
B|--0---------1----1--x--3--|--L--3--3----3----3----|--0----x---8---L---8--x--8--|
G|--0---------0----0--x--2--|--L--2--2----2----2----|--0----x---9---L---9--x--7--|
D|--x---------2----2--x--0--|--L--0--0----0----0----|--0----x--10---L--10--x--0--|
A|--2---------3-------x-----|-----------------------|--x----x--10---L------x-----|
E|--0-----------------------|-----------------------|--3----x---8---L------x-----|

                             ^                             PM PM PM              
    E  E  Q    Q     Q       E  E  E  E  E  E  E  E     E  E  E  E  E  E  E  E   
e|--L--8--7----0-----0----|--0--0--L-----------------|--L-----------------------|
B|--L--8--8----8----10----|--0--0--L-----------------|--L-----------------------|
G|--L--7--7----7-----7----|--0--0--------------------|--------------------------|
D|--L--0--0----0-----0----|--2--------0-----------0--|-----2-----0-----------0--|
A|------------------------|--2-----2-----------2-----|--------2-----------2-----|
E|------------------------|--0-----------0--0--------|--0-----------0--0--------|

    E  E  E  E  E  E  E  E       E  E  E  E  E  E  E  E   
e|--------------------------|----0-----------------------|
B|--------------------------|--2g3-----------------------|
G|-----0--------------------|----2-----------------------|
D|-----------0-----------0--|-------2-----0-----------0--|
A|--------2-----------2-----|----------2-----------2-----|
E|--0-----------0--0--------|----0-----------0--0--------|

    E  E  E  E  E  E  E  E     S  S  S  S S S S  S S S S  S S S S  S  
e|--0-----------------------|--5h-6p-5p-3---3------------------------|
B|--0-----------------------|-------------5---5p-3---3---------------|
G|--0-----------------------|----------------------4---4p-2---2------|
D|-----2-----0-----------0--|-------------------------------4---4p-2-|
A|--------2-----------2-----|----------------------------------------|
E|--0-----------0--0--------|----------------------------------------|

       E  E  E   E  E  E  E  E     E  E  E  E  E  E  E  E   
e|---2g3--3--2p--0--0-----0--0--|--L-----------------------|
B|---------------------3--------|-----0--L-----------------|
G|*-----------------------------|--------------------------|
D|*-------2------0-----------0--|-----2-----0-----------0--|
A|-----------2------------2-----|--------2-----------2-----|
E|-----0------------0--0--------|--0-----------0--0--------|

      E  E  E   E  E  E  E  E      E  E  E  E  E  E  E  E   
e|--2g3--3--2p--0--0-----0--2h--|--3--2-----0--L-----------|
B|------------------------------|--------------------0-----|
G|------------------------------|--------------------------|
D|-------2------0-----------0---|-----2-----0-----------0--|
A|----------2------------2------|--------2-----------2-----|
E|----0------------0--0---------|--0-----------0--0--------|

    E  E  E  E  E  E  E  E      E  E  E  E  E  E  E  E   
e|---------------------------|--------------------------|
B|---------------------------|--3-----------L--0--------|
G|--2--0--L------------------|-----------------------2--|
D|---------------------------|--4-----------------------|
A|--3--3--3--3--3--3--3--3s--|--5--5--5--5--5--5--5--5--|
E|---------------------------|--------------------------|

    E  E  E  E  E  E  E  E     E  E  E  E  E  E  E  E     
e|--------------------------|---------------------------|
B|-----0--L-----------------|---------------------------|
G|--L-----------------------|--------------------------*|
D|-----2-----0-----------0--|-----2-----0-----------0--*|
A|--------2-----------2-----|--------2-----------2------|
E|--0-----------0--0--------|--0-----------0--0---------|

    E  E  E  E  E  E  E   E     E  E  E  E  E  E  E  E   
e|---------------------------|--------------------------|
B|--------------0------------|-----0--------------------|
G|--------0-----------0h--2--|--L--------0--L-----------|
D|-----4-----4-----4---------|-----2-----0-----------0--|
A|--5------------------------|--------2-----------2-----|
E|---------------------------|--0-----------0--0--------|

    E  E  E  E  E  E  E  E     E  E  E  E  E  E  E   E   
e|--------------------------|--0--------------x---------|
B|--------------0--3--3--0--|-----------3--L--x--3p--0--|
G|-----------0--------------|-----------2-----x---------|
D|-----2-----0-----------0--|-----------0--L--x--0------|
A|--------2-----------2-----|--3--2--0--------x---------|
E|--0-----------0--0--------|-----------------x---------|

    E  S  S E  E  Q    E  E     E  E  E  E  E  E  E   E   
e|----------0-----0----x--0--|--L--0--x--2--L------------|
B|--3-------------0----x--1--|--L--1--x--3--L-----3p--0--|
G|----------------0----x--0--|--L--0--x--2--L------------|
D|-----3s-4-------2----x--2--|--L--2--x--0--L--0--L------|
A|----------------2----x--3--|--L-----x------------------|
E|-------------0--0----x-----|--------x------------------|

    E  S  S E  E  Q    E  E     E  E  E  E  Q    E   E   
e|----------0-----0----x--0--|--L--0--x--2--L-----------|
B|--3-------------0----x--1--|--L--1--x--3--L----3p--0--|
G|----------------0----x--0--|--L--0--x--2--L-----------|
D|-----3s-4-------2----x--2--|--L--2--x--0--L-----------|
A|----------------2----x--3--|--L-----x-----------------|
E|-------------0--0----x-----|--------x-----------------|

    E  E  E  E  E  E  E   E     E   E  E  E  E  E  E  E   
e|--------0------------------|------------------0--0--0--|
B|--3-----------0------------|---------------1--1--1--1--|
G|--------------------2p--0--|--2p--0-----0--0--0--0--0--|
D|-----0-----0---------------|---------2--2--2--2--2--2--|
A|---------------------------|--3------3--3--3--3--3--3--|
E|--------------0--0--0------|---------------------------|

                      golpe                              
    |----3----|                                            
    Q    Q    Q    Q    E     E     Q    E  Q    E  E  E   
e|--3----2----0----2-------------|--3----x--3----3--x--3--|
B|--3----3----3----3-------------|--0----x--1----1--x--3--|
G|--2----2----2----2-------------|--0----x--0----0--x--2--|
D|--0----0----0----0----x-----x--|--x----x--2----2--x--0--|
A|-------------------------------|--2----x--3-------x-----|
E|-------------------------------|--0----x----------------|

    E  E  Q    Q    Q       Q    E   E   E   E  E  E     E  E  Q    Q     Q     
e|--L--3--2----0----2----|--7----x---8---L---8--x--8--|--L--8--7----0-----0----|
B|--L--3--3----3----3----|--0----x---8---L---8--x--8--|--L--8--8----8----10----|
G|--L--2--2----2----2----|--0----x---9---L---9--x--7--|--L--7--7----7-----7----|
D|--L--0--0----0----0----|--0----x--10---L--10--x--0--|--L--0--0----0-----0----|
A|-----------------------|--x----x--10---L------x-----|------------------------|
E|-----------------------|--3----x---8---L------x-----|------------------------|

    E  E   E  Q    E  E  E     E  E  Q    Q    Q       Q    E   E   E   E  E  E   
e|--3--3s--5--3----3--x--3--|--L--3--2----0----2----|--7----x---8---L---8--x--8--|
B|--0---------1----1--x--3--|--L--3--3----3----3----|--0----x---8---L---8--x--8--|
G|--0---------0----0--x--2--|--L--2--2----2----2----|--0----x---9---L---9--x--7--|
D|--x---------2----2--x--0--|--L--0--0----0----0----|--0----x--10---L--10--x--0--|
A|--2---------3-------x-----|-----------------------|--x----x--10---L------x-----|
E|--0-----------------------|-----------------------|--3----x---8---L------x-----|

    E  E  Q    Q     Q       E  E  E  E  E   E  E   E   
e|--L--8--7----0-----0----|--8-----8--8----------------|
B|--L--8--8----8----10----|--8-----8--8-----12-----12--|
G|--L--7--7----7-----7----|--9-----9--9------9------9--|
D|--L--0--0----0-----0----|----------------------------|
A|------------------------|----------------------------|
E|------------------------|--8--8--8--8--8---8--8---8--|

     E   E  E  E  E  E  E  E     E  E  E  E  E   E   E  E   
e|----------------------------|--0-----0-------------------|
B|---L--10--8--L--L-----------|--------------8--10--12-----|
G|---L---9--9--L--L-----------|-----7----------------------|
D|----------------------------|----------------------------|
A|----------------------------|----------------------------|
E|---8---8--8--8--8--8--8--8--|--0--0--0--0--8---8---8--8--|

     E  E  Q     E  T   T  S  Q       E  E  E  Q    E  E  E   
e|---------------------------------|--3----------------0--0--|
B|--10-----------L--8h-10p-8-------|-----3-----1----3--------|
G|------7--7~----------------11----|--------4----------------|
D|---0--0--0-----0-----------------|----------------------0--|
A|---------------------------------|-----------3----3--3-----|
E|---------------------------------|--3--3--3----------------|

    E  E  Q    E  E  Q       E  E  E   Q     E  E  S  S  
e|--L---------------------|--3--3--x---8-----8-----2h-3-|
B|-----3--3----3--3--3----|--0--0--x---8-----8--x-------|
G|--------2----2--2--2----|--0--0--x---9-----9--x-------|
D|--L--0--0----0--0--0----|--x--x--x--10----10--x-------|
A|------------------------|--2-----x--10--------x-------|
E|------------------------|--0-----x---8----------------|

    E  E  E   E  E  E  E   E     E  E  E  Q     E  E  E   
e|--2------------------0h--2--|--3-----------------------|
B|-----3----------------------|-----3-----1p----0--------|
G|--------2~--L--L------------|--------4-----------0--0--|
D|--0--0--0---0--0--0--0---0--|--------------------------|
A|----------------------------|-----------3-----3--3-----|
E|----------------------------|--3--3--3-----------------|

    Q    Q    E  E  E  E     E  E  E  E  E  E  E  E     Q    E  Q    E  E   E   
e|-------0----------------|-----------------0--0--0--|--0----x--2----2--2------|
B|-------0----------------|--------------0--0--0--0--|--1----x--3----3--3p--0--|
G|-------0----------------|--------0--0--0--0--0--0--|--0----x--2----2--2------|
D|--2----2----------------|--2--2--2--2--2--2--2--2--|--2----x--0----0--0------|
A|--2------------------2--|--2--2--2--2--2--2--2--2--|--3----x-----------------|
E|--0---------0--0--0--0--|--0--0--0--0--0--0--0--0--|-------x-----------------|

                           |----3----|    |----3----|     
    Q    Q    Q    Q       Q    Q    Q    Q    Q    Q     
e|--2----0----0----x----|--0----0----0----0----0----0----|
B|--3----3----0----x----|--1----1----3----1----3----1----|
G|--2----2----0----x----|--0----0----0----0----0----0----|
D|--0----0----2----x----|--2----2----2----2----2----2----|
A|------------2----x----|--3----3----3----3----3----3----|
E|------------0----x----|--------------------------------|

                      golpe                              
    |----3----|                                            
    Q    Q    Q    Q    E     E     Q    E  Q    E  E  E   
e|--2----2----0----2-------------|--3----x--3----3--x--3--|
B|--3----3----3----3-------------|--0----x--1----1--x--3--|
G|--2----2----2----2-------------|--0----x--0----0--x--2--|
D|--0----0----0----0----x-----x--|--x----x--2----2--x--0--|
A|-------------------------------|--2----x--3-------x-----|
E|-------------------------------|--0----x----------------|

    E  E  Q    Q    Q       Q    E   E   E   E  E  E     E  E  Q    Q     Q     
e|--L--3--2----0----2----|--7----x---8---L---8--x--8--|--L--8--7----0-----0----|
B|--L--3--3----3----3----|--0----x---8---L---8--x--8--|--L--8--8----8----10----|
G|--L--2--2----2----2----|--0----x---9---L---9--x--7--|--L--7--7----7-----7----|
D|--L--0--0----0----0----|--0----x--10---L--10--x--0--|--L--0--0----0-----0----|
A|-----------------------|--x----x--10---L------x-----|------------------------|
E|-----------------------|--3----x---8---L------x-----|------------------------|

    E  E   E  Q    E  E  E     E  E  Q    Q    Q       Q    E   E   E   E  E  E   
e|--3--3s--5--3----3--x--3--|--L--3--2----0----2----|--7----x---8---L---8--x--8--|
B|--0---------1----1--x--3--|--L--3--3----3----3----|--0----x---8---L---8--x--8--|
G|--0---------0----0--x--2--|--L--2--2----2----2----|--0----x---9---L---9--x--7--|
D|--x---------2----2--x--0--|--L--0--0----0----0----|--0----x--10---L--10--x--0--|
A|--2---------3-------x-----|-----------------------|--x----x--10---L------x-----|
E|--0-----------------------|-----------------------|--3----x---8---L------x-----|

                                                    NH    NH  
    E  E  Q    Q    E    E     E  E  E  E  E  E     E     E   
e|--L--8--7----7------------|-----------------0--------------|
B|--L--8--8----8----8h--10--|--------------0-----<>12--------|
G|--L--7--7----7------------|--0--------0--------------<>12--|
D|--L--0--0----0------------|--------2-----------------------|
A|--------------------------|-----2--------------------------|
E|--------------------------|--0-----------------------------|

       NH    NH    NH   NH   NH   NH   NH        NH                 
       E     E     E    E    E    E    Q         W                  
e|--<>12-----------------------------<>5----|--<>L----------------|
B|--------<>12--------<>7------------<>5----|--<>L----------------|
G|--------------<>12-------<>7-------<>5----|--<>L----------------|
D|------------------------------<>7---------|---------------------|
A|------------------------------------------|---------------------|
E|------------------------------------------|---------------------|


************************************

| g   Grace note
| p   Pull-off
| *   Natural harmonic
| h   Hammer-on
| x   Dead note
| PM  Palm mute
| ~   Vibrato

************************************
Suggest correction
comments
print report bad tab
3 comments total.
+1 reply
RED FAN #1 85 Sep 28, 2009 07:59 PM

it sounds good but if you watch his youtube vid then you'll know this version is done in standerd(he says so himself"and this is normal tuning...uh..440 hertz...uh"ya gotta love it)...not a double-dropped D# tuning...i'm just saying

-1 reply
RED FAN #1 85 Sep 30, 2009 01:28 AM

sorry ment to say his no this version. and if u like to use b's instead of sharps on select chords (like fo example i prefer F# rather than Gb...but really its just personal prefrenc)than it would be a double dropped Eb Tuning.

0 reply
masterclaw 1,192 Feb 27, 2010 07:39 AM

You coverted my Guitar Pro version to a txt. This is no mean feat!

guest
You may want to rate the tab now too:
select rating
Wanna post a correction for this tab? Suggest correction